rock
 
|tablatures   |lyrics   |discussion forums   |more tabs @ XGuitar.com

Iron Maiden tabs

2 A.M. bass tab

Iron Maiden - 2 AM
Tabbed By: Blaze64
Email: numetal.kid@blueyonder.co.uk

Tuning: Standard (E A D G)

This is a kick ass song


-------2----2-------5----5---|------7----7-------2---------
-----2------------5----------|----7------------2-----------
---0-----0------3-----3------|--5-----5------0-----0-------
-----------------------------|-----------------------------

Intro/Interlude

---------2-----2-----2-----|--------5-----5-----5-----
*-----2-----2-----2-----2--|-----5-----5-----5-----5--
*--0-----------------------|--3-----------------------
---------------------------|--------------------------

clean Verse
                                                    3x
--------7-----7-----7-----|--------2-----2-----2------
-----7-----7-----7-----7--|-----2-----2-----2-----2---
--5-----------------------|--0------------------------
--------------------------|---------------------------

-----------------------------|-----------------------------
-----------------------------|-----------------------------
---0-0-0-0-0----3-3-3-3-3----|--5-5-5-5-5----0-0-0-0-0-----
-----------------------------|-------------------------3---

Chorus/distorted Verse

----------------------------|-----------------------------
----------------------------|-----------------------------
--0-0-0-0-0-----------------|--5-5-5-5-5----0-0-0-0-0-----
---------------3-3-3-3-3----|-----------------------------

|-------------------
|-------------------
|--0----------------
|-------------------

before melody part
                                                        2x
|----------------------------|---------------------------
|*---------------------------|---------------------------
|*--0--0-0-0--0-0-0------0-0-|--3--3-3-3--5----5-7-7-----
|----------------------------|---------------------------

melody part before solo

---------------------------------|------------------------
*--------------------------------|------------------------
*--5-7-7-7-7--7-7-5-7-7-7-7--7-7-|--3--3-3-3---------5----
---------------------------------|------------3-----------

solo

--------------------------------|-------------------------
--------------------------------|-------------------------
--5-7-7-7-7--7-7-5-7-7-7-7--7-7-|--3--3-3-3--5------5-----
--------------------------------|-------------------------

------2----2-------5----5---|------7----7-------2-------
----2------------5----------|----7------------2---------
--0-----0------3-----3------|--5-----5------0-----0-----
----------------------------|---------------------------
  development and support by
dmitry ivanov