rock
 
|tablatures   |lyrics   |discussion forums   |more tabs @ XGuitar.com

Iced Earth tabs

Written on the Walls bass tab

ICED EARTH: Written On The Walls

#-------------------------------PLEASE NOTE------------------------------------#
#  This file is the author's own work and represents his interpretation        #
#  of the song. You may only use this file for private study, scholarship, or  #
#  research. Remember to view this file in Courier, or some other monospaced   #
#  font                                                                        #
#------------------------------------------------------------------------------#



Intro

|------|------|------|------|------|------|------|------|
|------|------|------|------|------|------|------|------|
|------|------|------|------|------|------|------|------|
|--0---|--0---|--00--|--00--|--0---|--00--|--0---|--0---|



Riff 1

|------|------|------|------|------|------|------|------|
|------|------|------|------|------|------|------|------|
|------|------|------|------|------|------|------|------|
|-0000-|-0003-|-2222-|-2225-|-3333-|-3335-|-2222-|-2223-|



Fill

|------|
|------|
|------|
|--0---|



Riff 2

|------|------|------|------|------|------|------|------|
|------|------|------|------|------|------|------|------|
|------|------|------|------|------|------|------|------|
|-000--|-000--|-000--|-000--|-002--|-222--|-222--|-222--|

|------|------|------|------|------|------|------|------|
|------|------|------|------|------|------|------|------|
|------|------|------|------|------|------|------|------|
|-223--|-333--|-333--|-333--|-332--|-222--|-222--|-222--|



Riff 3

|------|------|------|------|------|------|------|------|
|------|------|------|------|------|------|------|------|
|------|------|------|------|------|------|------|------|
|-0000-|-0000-|-0000-|-0000-|-2222-|-2222-|-2222-|-2222-|

|------|------|------|------|------|------|------|------|
|------|------|------|------|------|------|------|------|
|------|------|------|------|------|------|------|------|
|-3333-|-3333-|-3333-|-3333-|-2222-|-2222-|-2222-|-2222-|



Riff 4

|------|------|------|------|
|------|------|------|------|
|--7---|------|------|--9---|
|--0---|--2---|--3---|------|



Riff 5

|------|------|------|------|------|------|------|------|
|------|------|------|------|------|------|------|------|
|------|------|------|------|------|------|------|------|
|-000--|-000--|-0000-|-000--|-002--|-222--|-2222-|-222--|

|------|------|------|------|------|------|------|------|
|------|------|------|------|------|------|------|------|
|------|------|------|------|------|------|------|------|
|-223--|-333--|-3333-|-333--|-332--|-222--|-2222-|-222--|



Riff 6

	 Repeat a lot of times
|------||------|------|------|------||
|------||------|------|------|------||
|------||------|------|------|------||
|023/14||-/12--|-/14--|-/15--|-/14--||	Note: there are a lot of variations on this riff!



Riff 7

|------|------|------|------|------|------|------|------|------|------|------|------|
|------|------|------|------|------|------|------|------|------|------|------|------|
|------|------|------|------|------|------|------|------|------|------|------|------|
|0-0-0-|--0---|0-0-0-|0-0-0-|--0---|0-0-0-|0-0-0-|--0---|0-0---|0-0-0-|--0---|0-0-0-|



Solo: Play Riff 2



Riff 8

|------|------|------|------|------|------|------|------|
|------|------|------|------|------|------|------|------|
|------|------|------|------|------|------|------|------|
|-000--|-000--|-000--|-000--|-000--|-000--|-333--|-222--|



Fill

|------|
|------|
|------|
|--0---|



Riff 9

|------|------|------|------|------|------|------|------|------|
|------|------|------|------|------|------|------|------|------|
|------|------|------|------|------|------|------|------|------|
|--3---|---2--|------|---0--|------|--3---|--0---|------|---2--|
  development and support by
dmitry ivanov