rock
 
|tablatures   |lyrics   |discussion forums   |more tabs @ XGuitar.com

Iced Earth tabs

Wolf bass tab

Iced Earth
Wolf
from Horror Show by Schaffer
Transcripted by Stefano Lopez (toscanino@inwind.it)

FIND EVERY ICED EARTH SONG AND
THE MOST UPDATED VERSION OF THIS SONG AT:

                          The Frozen Palace
                  http://abysslord.com/icedearth/

PLEASE DO NOT COPY THIS TAB TO ANOTHER SITE 
WITHOUT AUTHORS' PERMISSION.  THANK YOU.

Tune  step down

Intro                                                  X4|           
G|---4----4-5--4----|---4----4-5--4----|----4-------4----|-------||
D|------7---------7-|------7---------7-|-3----3--5----5--|-------||
A|-7----------------|-7----------------|-----------------|-7--r--||
E|------------------|------------------|-----------------|-------||

Riff 1 x2 
G|---------------------------------|---------------------------------|
D|---------------------------------|---------------------------------|
A|-------2-----0-2-3-----2---------|-------2-----0-2-3-----2---------|
E|-0-000---000-------000---000-0/1-|-0-000---000-------000---000-1/0-|
 |
G|---------------------------------||
D|---------------------------------||
A|---------------------------------||
E|-1-111-1-111-0/1-1-111-1-111-0\1-||

Verse 1 x2
G|-----------------------------------|-------------------------------|X2
D|-----------------------------------|-------------------------------|
A|-------2-----0-2-3-----2-----0-2-3-|-----2-----0-2-------3-----3-2-|
E|-0-000---000-------000---000-------|-000---000-----1-111---111-----|
 |
G|---------------------------------|---------------------------------||X2
D|---------------------------------|---------------------------------||
A|-------2-----2---------2-----2-3-|---------------------------------||
E|-3-333---333---3-1-111---111-----|-0-000-0-000-0/1-0-000-0-000-1\0-||

Chorus x2
G|------------------------------------|------------------------------------||
D|------------------------------------|------------------------------------||
A|------------------33333333----------|---------------------------11111111-||
E|-0000000000000000----------33333333-|-1111111111111111-33333333----------||

Verse 2 x2
G|-----------------------------------|-------------------------------|X2
D|-----------------------------------|-------------------------------|
A|-------2-----0-2-3-----2-----0-2-3-|-----2-----0-2-------3-----3-2-|
E|-0-000---000-------000---000-------|-000---000-----1-111---111-----|
 |
G|---------------------------------|---------------------------------||X2
D|---------------------------------|---------------------------------||
A|-------2-----2---------2-----2-3-|---------------------------------||
E|-3-333---333---3-1-111---111-----|-0-000-0-000-0/1-0-000-0-000-1\0-||

Chorus x2
G|------------------------------------|------------------------------------||
D|------------------------------------|------------------------------------||
A|------------------33333333----------|---------------------------11111111-||
E|-0000000000000000----------33333333-|-1111111111111111-33333333----------||

Riff 2 x2                        |                X2               |   
G|-------------------------------|---------------------------------|
D|-------------------------------|---------------------------------|
A|-----8---7---5---8---7---5-7-8-|-------8---7---5---8---7---5-7-8-|
E|-0-0---0---0---0---0---0-------|-000-0---0---0---0---0---0-------|
 |
G|--------------------------||
D|--------------------------||
A|-------8---7---5----3---3-||
E|-000-0---0---0---0--------||

Riff 3                  X4|
G|------------------------|-------------------||
D|------------------------|-------------------||
A|------------------3---3-|-----------3-r-5-r-||
E|-000-000-000-000--------|-3-r--5-r----------||

Verse 3 x2
G|-----------------------------------|-------------------------------|X2
D|-----------------------------------|-------------------------------|
A|-------2-----0-2-3-----2-----0-2-3-|-----2-----0-2-------3-----3-2-|
E|-0-000---000-------000---000-------|-000---000-----1-111---111-----|
 |
G|---------------------------------|---------------------------------||X2
D|---------------------------------|---------------------------------||
A|-------2-----2---------2-----2-3-|---------------------------------||
E|-3-333---333---3-1-111---111-----|-0-000-0-000-0/1-0-000-0-000-1\0-||

Chorus x4
G|------------------------------------|------------------------------------||
D|------------------------------------|------------------------------------||
A|------------------33333333----------|---------------------------11111111-||
E|-0000000000000000----------33333333-|-1111111111111111-33333333----------||

Outro 
G|------------------------------------|------------------------------------|X2
D|------------------------------------|------------------------------------|
A|------------------33333333----------|---------------------------11111111-|
E|-0000000000000000----------33333333-|-1111111111111111-33333333----------|
 |                               |                X2               |   
G|-------------------------------|---------------------------------|
D|-------------------------------|---------------------------------|
A|-----8---7---5---8---7---5-7-8-|-------8---7---5---8---7---5-7-8-|
E|-0-0---0---0---0---0---0-------|-000-0---0---0---0---0---0-------|
 |

G|--------------------------||
D|--------------------------||
A|-------8---7---5----3---3-||
E|-000-0---0---0---0--------||

Ending
G|-------------------||
D|-------------------||
A|-----------3-r-5-r-||
E|-3-r--5-r----------||






  development and support by
dmitry ivanov