rock
 
|tablatures   |lyrics   |discussion forums   |more tabs @ XGuitar.com

Iced Earth tabs

Winter Nights bass tab

ICED EARTH:  Winter Nights

from Days of Purgatory by Schaffer
Transcripted by Stefano Lopez (toscanino@inwind.it)

FIND EVERY ICED EARTH SONG AND
THE MOST UPDATED VERSION OF THIS SONG AT:

                          The Frozen Palace
                  http://abysslord.com/icedearth/
 
PLEASE DO NOT COPY THIS TAB TO ANOTHER SITE 
WITHOUT AUTHORS' PERMISSION.  THANK YOU.

Standard tuning

Intro (Riff 1)
G|---------------------------------|---------------------------------|X3
D|---------------------------------|---------------7-9-7-5-7-5-3-5-3-|
A|---------2/3\2-----------2/3\2---|---------2/3\2-------------------|
E|-0-0-0-0-------0-0-0-0-0-------0-|-0-0-0-0-------------------------|
 |
G|---------------------------------|-------------------------------|
D|---------------------------------|---------------7-9-7-5-7-5-3-5-|
A|---------2/3\2-----------2/3\2---|---------2/3\2-----------------|
E|-0-0-0-0-------0-0-0-0-0-------0-|-0-0-0-0-----------------------|
 |
G|-------------------||
D|-0-3-5-7-5-3-3-5-0-||
A|-------------------||
E|-------------------||

Verse 1                              X3|
G|-------------------------------------|---------------------------||X3
D|-------------------------------------|---------------------------||
A|-7--7-777-777--8---8--8-88-8-88-8-88-|-7--7-777------------------||
E|-------------------------------------|----------8-7-6~--6-6-6-6\-||

Interlude x6
G|---------------------------------|---------------------------------||
D|---------------------------------|---------------------------------||
A|-5h7-----5h7-----5h7-----5h7-----|-3h5-----3h5-----3h5-----3h5-----||	
E|-----0-0-----0-0-----0-0-----0-0-|-----0-0-----0-0-----0-0-----0-0-||	

Solo x6
G|---------------------------------|---------------------------------||
D|---------------------------------|---------------------------------||
A|-5h7-7-7-5h7-7-7-5h7-7-7-5h7-7-7-|-3h5-5-5-3h5-5-5-3h5-5-5-3h5-5-5-||	
E|---------------------------------|---------------------------------||	

G|--------||
D|--------||
A|--------||
E|-0-r----||

Riff 1
G|---------------------------------|---------------------------------|X3
D|---------------------------------|---------------7-9-7-5-7-5-3-5-3-|
A|---------2/3\2-----------2/3\2---|---------2/3\2-------------------|
E|-0-0-0-0-------0-0-0-0-0-------0-|-0-0-0-0-------------------------|
 |
G|---------------------------------|-------------------------------|
D|---------------------------------|---------------7-9-7-5-7-5-3-5-|
A|---------2/3\2-----------2/3\2---|---------2/3\2-----------------|
E|-0-0-0-0-------0-0-0-0-0-------0-|-0-0-0-0-----------------------|
 |
G|-------------------||
D|-0-3-5-7-5-3-3-5-0-||
A|-------------------||
E|-------------------||



Verse 2                              X3|
G|-------------------------------------|---------------------------||X3
D|-------------------------------------|---------------------------||
A|-7--7-777-777--8---8--8-88-8-88-8-88-|-7--7-777------------------||
E|-------------------------------------|----------8-7-6~--6-6-6-6\-||

Riff 2 x4                    
G|-------------------------------|X2
D|-------------------------------|
A|-7-7-7-7-7-7-7-8-8-8-8-5-5-5-5-|
E|-------------------------------|
 |
G|-------------------------------------------------------------||
D|-------------------------------------------------------------||
A|-7-7-7-7-7-7-7-8-8-8-8-5-5-5-5-3-3-3-3-3-3-3-5-5-5-5-5-5-5-7-||
E|-------------------------------------------------------------||

Outro
G|--------------------------------------|X2
D|--------------------------------------|
A|-7------------------------------------|
E|-0------------------------------------|
 |
G|---------------------------------------------------------||
D|---------------------------------------------------------||
A|-7--------------------------------------3----5-----------||
E|-0------------------------------------------------0--r---||
  development and support by
dmitry ivanov