rock
 
|tablatures   |lyrics   |discussion forums   |more tabs @ XGuitar.com

Iced Earth tabs

White Room guitar tab

Demons & Wizards:  White Room

transcribed by:  Russ Elton (webmaster@abysslord.com)
with a tiny little correction on 3/7/00 by Tero Liimatainen

FIND EVERY ICED EARTH SONG AND
THE MOST UPDATED VERSION OF THIS SONG AT:

                          The Frozen Palace
                  http://abysslord.com/icedearth/

Date last modified:  8/18/00
  
PLEASE DO NOT COPY THIS TAB TO ANOTHER SITE 
WITHOUT AUTHORS' PERMISSION.  THANK YOU.

Tuning: Eb

Riff 1
eb|------------------------------------------|
Bb|------------------------------------------|
Gb|------------------------------------------|
Db|------------------------------------------|
Ab|-5-----------------5--3-----------------3-|
Eb|-3--3-3-3-3--3--3--3--1--1-1-1-1--1--1--1-|
       * * * *  *  *        * * * *  *  *
                                              Last chord
eb|-------------------------------------------|-----|
Bb|-------------------------------------------|-----|
Gb|-------------------------------------------|-----|
Db|-7-----------------7--5-----------------5--|--2--|
Ab|-5--5-5-5-5--5--5--5--3--3-3-3-3--3--3--3--|--0--|
Eb|-------------------------------------------|-----|
       * * * *  *  *        * * * *  *  * 


Riff 2
eb|----------------------------------------------|
Bb|----------------------------------------------|
Gb|----------------------------------------------|
Db|-7--7------5-5--5-------5--5------3-----5-----|
Ab|-5--5--0-0-3-3--3--0-0--2--2--0-0-1-0-0-3-0-0-|
Eb|----------------------------------------------|
          * * * *     * *        * *   * *   * * 
   "In the white room..."


Riff 3
eb|-----------------------------|
Bb|-----------------------------|
Gb|-----------------------------|
Db|-5---------3----2----5-------|
Ab|-3----5----1----0----3----5--|
Eb|------3-------------------3--|
   "I'll wait..."

eb|----------------------------------------------------|
Bb|----------------------------------------------------|
Gb|----------------------------------------------------|
Db|-3---------------5---------------7-------------5--7-|
Ab|-1-1-1-1-1-1-1-1-3-3-3-3-3-3-3-3-5-5-5-5-5-5-5-3--5-|
Eb|----------------------------------------------------|
      * * * * * * *   * * * * * * *   * * * * * * 

Play Riff 2    "You said no strings..."
Play Riff 3    "I wait..."
Play Riff 1    
Play Riff 2    "At the party..."
Play Riff 3    "I'll sleep..."
Play Riff 1
Play Riff 2    solo rhythm

song fades out to riff 2


Notation:

10^        = bend a quarter step.
10b11      = bend a half step.
10b12      = bend a full step.
10b12r10   = bend and release.
[10]12     = pre-bend.
[10]12r10  = pre-bend and release.
{14}       = pick the 14th fret while holding the most 
             previous bend.
<17>       = touch the string above the 17th fret while 
             previous note(s) is(are) still ringing.

10b13*     = tremolo bar bend, from the 10th fret to the 13th fret.
7d4*       = tremolo bar dive, from the 7th fret to the 4th fret. 
12~*       = tremolo bar vibrato.

x   =  mute with fret-hand
*   =  palm mute
X\\ =  pick slide
h   =  hammer-on
p   =  pull-off
~   =  vibrato
t   =  finger tap
/   =  slide up
\   =  slide down
h.  =  natural harmonics
a   =  artificial harmonics
(9) =  ghost note
tm  =  trem picking
tr  =  trill
  development and support by
dmitry ivanov