rock
 
|tablatures   |lyrics   |discussion forums   |more tabs @ XGuitar.com

Iced Earth tabs

When the Night Falls bass tab

ICED EARTH
When The Night Falls
from Iced Earth by Schaffer
Transcripted by Stefano Lopez (toscanino@inwind.it)

FIND EVERY ICED EARTH SONG AND
THE MOST UPDATED VERSION OF THIS SONG AT:

                          The Frozen Palace
                  http://abysslord.com/icedearth/

PLEASE DO NOT COPY THIS TAB TO ANOTHER SITE 
WITHOUT AUTHORS' PERMISSION.  THANK YOU.

Tune down  step

Intro
G|-----------------||
D|-----------------||
A|-----------------||
E|-1-1-1-1-3-3-3-3-||

Riff 1 x4                                             
G|----------------------------------------------------||
D|----------------------------------------------------||
A|-----------7-7-7-5-0-5-0-5-3-3--3p0-----------------||
E|-0--0--0-0--------------------------3-333-2-222-1-0-||

Riff 2 
G|------------------------------------------------------------|X2
D|------------------------------------------------------------|
A|------------------------------------------------------------|
E|-000-000-000-000-000-000-5-0-0-000-000-3-0-0-000-000--0-0-0-|
 |
G|-----------------------------------------------------||
D|-----------------------------------------------------||
A|-----------------------------------------------------||
E|-000-000-000-000-000-000-5-5-5-5-5-5-5-3-3-3-3-3-3-3-||

Riff 3 x2
G|---------------------------------------------------------||
D|---------------------------------------------------------||
A|------5---4---2---0---2---5-4-2--------------------------||
E|-0--0---0---0---0---0---0--------5-5-555-555-3-3-333-333-||

Verse 1 
G|---------------------------------------------------------|X3
D|---------------------------------------------------------|
A|------5---4---2---0---2---5-4-2--------------------------|
E|-0--0---0---0---0---0---0--------5-5-555-555-3-3-333-333-|
 |
G|-------------------------------------------------------||
D|-------------------------------------------------------||
A|------5---4---2---0---2---5-4-2------------------------||
E|-0--0---0---0---0---0---0--------5-5-555-555-3--3--3-3-||

Riff 4                       X2|
G|-----------------------------|------------------------------||
D|-----------------9-----------|------------------------------||
A|-5-5-7--777-9-10--10-9-7-777-|--5-5-------------------------||
E|-----------------------------|------5-5-555-555-3-3-333-333-||

Verse 2 
G|---------------------------------------------------------|X3
D|---------------------------------------------------------|
A|------5---4---2---0---2---5-4-2--------------------------|
E|-0--0---0---0---0---0---0--------5-5-555-555-3-3-333-333-|
 |
G|-------------------------------------------------------||
D|-------------------------------------------------------||
A|------5---4---2---0---2---5-4-2------------------------||
E|-0--0---0---0---0---0---0--------5-5-555-555-3--3--3-3-||

Riff 4                       X2|                          X4|
G|-----------------------------|----------------------------|-----------||
D|-----------------9-----------|----------------------------|-----------||
A|-5-5-7--777-9-10--10-9-7-777-|--5-5-7---------------------|--5-5------||
E|-----------------------------|--------0-0-000-000-000-000-|-------0-r-||

Bridge
G|--------------------------------------------------------------||
D|--------------------------------------------------------------||
A|--------------------------------------------------------------||
E|-0-r--------------------0-r-------------0-0-0-r---------------||

Verse 3
G|--------------------------------------------------------------------------||
D|-----------------------------------------------------------5-5--7---------||
A|------------------------------------------------------------------5-5--7--||
E|-0-r----------------0-0-0-r-------------0-0-0-r---------------------------||

Chorus x4                                             
G|----------------------------------------------------||
D|----------------------------------------------------||
A|-----------7-7-7-5-0-5-0-5-3-3--3p0-----------------||
E|-0--0--0-0--------------------------3-333-2-222-1-0-||

Riff 5a                   
G|----------------------------------------------------------------------------|
D|----------------------------------------------------------------------------|
A|-7-r------------------5-r--------------------7-r------------------5-r----7--|
E|-0-r-----------------------------------------0-r----------------------------|
 |
G|--------------------------------------------------------------------------|
D|--------------------------------------------------------------------------|
A|-7--7-7-7-7--7-7-7-7--5-r--5-5-5-5--5-5-5-5--7-r------------------5-r-----|
E|-0-------------------------------------------0-r--------------------------|
 |
G|-------------||
D|--7-777-7----||
A|----------7--||
E|-------------||

Riff 5b x4
G|-------------------------------------------------------------------||
D|-------------------------------------------------------------------||
A|--7-7-777-7-5-5-----5-555-5-5-5-7----7-777-7-5-5-------------5-5/7-||
E|----------------7-7---------------5--------------5-5-5-555-7-------||

Pre-solo 
G|-----------------------------------------------------------||
D|-----------------------------------------------------------||
A|-7--------------------------------------------7-8-10-8-7-5-||
E|--------------1-------------3--------------1---------------||

Solo 1 x4
G|------------------------------------------------------------||
D|------------------------------------------------------------||
A|-7-7-777-777--8-7-7-777-777-10-7-7-777-777--8--7-8-10-8-7-5-||
E|------------------------------------------------------------||

Riff 6
G|-----------------------------------------------------------------------|
D|-----------------------------------------------------------------------|
A|-----------2-1--1-1-11-2-1--------------2-1-1-1-1-111-0-1-111-0-1-0010-|
E|--0----0-0-----------------3-2-0----0-0--------------------------------|
 |
G|----------------------------------------------------|
D|----------------------------------------------------|
A|--2-----2-----2-----2\1--1-1-1-1-1-1-1-1-11-2-1-----|
E|--0-0-0-0-0-0-0-0-0-----------------------------3-2-|
 |
G|----------------------------------------------------||
D|----------------------------------------------------||
A|--2-----2-----2-----2\1--1-1-1-1-1-1-1-111-0-1-0010-||
E|--0-0-0-0-0-0-0-0-0---------------------------------||

Verse 4 x5
G|------------------------------------------------------------||
D|------------------------------------------------------------||
A|-7-7-777-777--8-7-7-777-777-10-7-7-777-777--8--7-8-10-8-7-5-||
E|------------------------------------------------------------||

Pre-Riff 6 x2
G|---------------------------------------------------------------------------|
D|---------------------------------------------------------------------------|
A|-5-555-555-555-555-555-555-555-555-555-555-555-555-555-555-555-555-555-555-|
E|---------------------------------------------------------------------------|

Riff 6 x4
G|-----------------------------------------------------||
D|-----------------------------------------------------||
A|-5-555-555-555-555-5-5-5-5-5-5-555-555-555-555-555-0-||
E|-----------------------------------------------------||

Pre-Verse 5 
G|------------------------------------------------------------|
D|------------------------------------------------------------|
A|-10-1010101010--8--8--8--8--8--8--6-6-6-6-6-6-5-5-5-5-5-5-5-|
E|------------------------------------------------------------|
 |
G|-------------------------------------------------------------||
D|-------------------------------------------------------------||
A|--10-1010101010--8--8--8--8--8--8--6-6-666-886-5-5-5-5-5-5-5-||
E|-------------------------------------------------------------||

Verse 5 
G|------------------------------------------------------------|
D|------------------------------------------------------------|
A|-10-1010101010--8--8--8--8--8--8--6-6-6-6-6-6-5-5-5-5-5-5-5-|
E|------------------------------------------------------------|
 |
G|-------------------------------------------------------------|
D|-------------------------------------------------------------|
A|--10-1010101010--8--8--8--8--8--8--6-6-666-886-5-5-5-5-5-5-5-|
E|-------------------------------------------------------------|
 |
G|------------------------------------------------------------|
D|------------------------------------------------------------|
A|-10-1010101010--8--8--8--8--8--8--6-6-6-6-6-6-5-5-5-5-5-5-5-|
E|------------------------------------------------------------|
 |
G|-------------------------------------------------||
D|-------------------------------------------------||
A|--10-1010101010--8--8--8--8--8--8--6-6-666-886-5-||
E|-------------------------------------------------||



Riff 6b 
G|-----------------------------------------------------|X2
D|-----------------------------------------------------|
A|-5-555-555-555-555-5-5-5-5-5-5-555-555-555-555-555-0-|
E|-----------------------------------------------------|
 |
G|-----------------------------------------------------|
D|-----------------------------------------------------|
A|-4-444-444-444-444-4-4-4-4-4-4-444-444-444-444-444-0-|
E|-----------------------------------------------------|
 |
G|-----------------------------------------------------|
D|-----------------------------------------------------|
A|-5-555-555-555-555-5-5-5-5-5-5-555-555-555-555-555-0-|
E|-----------------------------------------------------|
 |
G|-----------------------------------------------------|
D|-----------------------------------------------------|
A|-4-444-444-444-444-4-4-4-4-4-4-444-444-444-444-444-0-|
E|-----------------------------------------------------|
 |
G|-----------------------------------------------------|
D|-----------------------------------------------------|
A|-5-555-555-555-555-5-5-5-5-5-5-555-555-555-555-555-0-|
E|-----------------------------------------------------|

Riff 7
G|---------------------------------------------------|X2
D|-------5------------5-----------5-7-8--------5-7-8-|
A|-5-555---8-7--5-555---8-7-6-666--------6-666-------|
E|---------------------------------------------------|
 |
G|----------------------------------------------------||X2
D|-------7------------7-----------7-9-10-------7-9-10-||
A|-7-777--10-9--7-777--10-9-8-888--------8-888--------||
E|----------------------------------------------------||

Solo 2 x4
G|----------------------------------------------------||
D|----------------------------------------------------||
A|---------------3-333-3-3-3-2-222-2-2-2--5-555-5-5-5-||
E|--5-555-5-5-5---------------------------------------||

G|-----------------------------||X2
D|-----------------------------||
A|--3--2--0--r-------3--2------||
E|-------------------------0-r-||

Bridge
G|----------------------------------------------------------------------9-----||
D|--------------------------------------------------------------------9---9---||
A|------------------------------------------------------------------7-------7-||
E|-0-r--------------------0-r-------------0-0-0-r-----------------------------||

Verse 6
G|--------------------------------------------------------------------------||
D|-----------------------------------------------------------5-5--7---------||
A|------------------------------------------------------------------5-5--7--||
E|-0-r----------------0-0-0-r-------------0-0-0-r---------------------------||




Chorus x4                                             
G|----------------------------------------------------||
D|----------------------------------------------------||
A|-----------7-7-7-5-0-5-0-5-3-3--3p0-----------------||
E|-0--0--0-0--------------------------3-333-2-222-1-0-||

Ending Solo x4                                             
G|----------------------------------------------------||
D|----------------------------------------------------||
A|-----------7-7-7-5-0-5-0-5-3-3--3p0-----------------||
E|-0--0--0-0--------------------------3-333-2-222-1-0-||
 |
G|--------------------------------------------------------------------||
D|--------------------------------------------------------------------||
A|-----------7-7-7-5-0-5-0-5-3-3--3p0---------------------------------||
E|-0--0--0-0--------------------------3-333-2-222-1-0--r----------0/--||

  development and support by
dmitry ivanov