rock
 
|tablatures   |lyrics   |discussion forums   |more tabs @ XGuitar.com

Iced Earth tabs

Waterloo bass tab

Iced Earth
Waterloo
from The Glorious Burden by Schaffer
Transcripted by Stefano Lopez (toscanino@fastwebnet.it) 
Tune  step down

FIND EVERY ICED EARTH SONG AND
THE MOST UPDATED VERSION OF THIS SONG AT:

                          The Frozen Palace
                  http://abysslord.com/icedearth/

PLEASE DO NOT COPY THIS TAB TO ANOTHER SITE 
WITHOUT AUTHORS' PERMISSION.  THANK YOU.

Intro
Gb|-----------------------------|-----------------------------|
Db|-----------------------------|-----------------------------|
Ab|--------7---7---------7---7--|--------7---7---------7---7--|
Eb|-0-000---------0-000---------|-0-000---------0-000---------|
  |
Gb|-------------------------------|--------------------------------------------||
Db|-------------------------------|--------------------------------------------||
Ab|--------7---7---------7---7--7-|-5-5-5-5-5-5-5--5-0-3-3-3-3-3--3-2--------2-||
Eb|-0-000---------0-000-----------|-----------------------------------5-3--5---||

Verse 1 x4
Gb|-----------------------------------------|-----------------------------------------|
Db|-----------------------------------------|-----------------------------------------|
Ab|-7-77-5-7--7-777-777-777-77--------------|-5--5-555-555-555-555-55-2--2-222-222-22-|
Eb|----------------------------3-55-3--2-55-|-----------------------------------------|
  |
Gb|------------------------------------------------||
Db|------------------------------------------------||
Ab|-5--5-555-555-55--------------------------------||
Eb|-----------------5-55-3-5--5-555-555-555-555-55-||

Chorus x2
Gb|-----------------------------|-----------------------------|
Db|-----------------------------|-----------------------------|
Ab|--------7---7---------7---7--|--------7---7---------7---7--|
Eb|-0-000---------0-000---------|-0-000---------0-000---------|
  |
Gb|-------------------------------|--------------------------------------------||
Db|-------------------------------|--------------------------------------------||
Ab|--------7---7---------7---7--7-|-5-5-5-5-5-5-5--5-0-3-3-3-3-3--3-2--------2-||
Eb|-0-000---------0-000-----------|-----------------------------------5-3--5---||

Verse 2 x4
Gb|-----------------------------------------|-----------------------------------------|
Db|-----------------------------------------|-----------------------------------------|
Ab|-7-77-5-7--7-777-777-777-77--------------|-5--5-555-555-555-555-55-2--2-222-222-22-|
Eb|----------------------------3-55-3--2-55-|-----------------------------------------|
  |
Gb|------------------------------------------------||
Db|------------------------------------------------||
Ab|-5--5-555-555-55--------------------------------||
Eb|-----------------5-55-3-5--5-555-555-555-555-55-||

Chorus x2
Gb|-----------------------------|-----------------------------|
Db|-----------------------------|-----------------------------|
Ab|--------7---7---------7---7--|--------7---7---------7---7--|
Eb|-0-000---------0-000---------|-0-000---------0-000---------|
  |
Gb|-------------------------------|--------------------------------------------||
Db|-------------------------------|--------------------------------------------||
Ab|--------7---7---------7---7--7-|-5-5-5-5-5-5-5--5-0-3-3-3-3-3--3-2--------2-||
Eb|-0-000---------0-000-----------|-----------------------------------5-3--5---||





Post-chorus
Gb|------------------------------|------------------------------|
Db|------------------------------|------------------------------|
Ab|------------------------------|------------------------------|
Eb|-0-0000-0-0-0000-0-0000-0-0-1-|-0-0000-0-0-0000-0-0000-0-0-3-|
  |
Gb|------------------------------|--------------------------------|
Db|------------------------------|--------------------------------|
Ab|------------------------------|--------------------------------|
Eb|-0-0000-0-0-0000-0-0000-0-0-1-|-0-0000-0-0-0000-0-0000-0-0-3-0-|
  |
Gb|--------------------------------------------||
Db|--------------------------------------------||
Ab|-5-5-5-5-5-5-5--5-0-3-3-3-3-3--3-2--------2-||
Eb|-----------------------------------5-3--5---||

Bridge
Gb|--------------------------------||X2
Db|--------------------------------||
Ab|--------------------------------||
Eb|-0-r------2-r------3-r------5-r-||

Verse 3 x4
Gb|-----------------------------------------|-----------------------------------------|
Db|-----------------------------------------|-----------------------------------------|
Ab|-7-77-5-7--7-777-777-777-77--------------|-5--5-555-555-555-555-55-2--2-222-222-22-|
Eb|----------------------------3-55-3--2-55-|-----------------------------------------|
  |
Gb|------------------------------------------------||
Db|------------------------------------------------||
Ab|-5--5-555-555-55--------------------------------||
Eb|-----------------5-55-3-5--5-555-555-555-555-55-||

Chorus x2
Gb|-----------------------------|-----------------------------|
Db|-----------------------------|-----------------------------|
Ab|--------7---7---------7---7--|--------7---7---------7---7--|
Eb|-0-000---------0-000---------|-0-000---------0-000---------|
  |
Gb|-------------------------------|--------------------------------------------||
Db|-------------------------------|--------------------------------------------||
Ab|--------7---7---------7---7--7-|-5-5-5-5-5-5-5--5-0-3-3-3-3-3--3-2--------2-||
Eb|-0-000---------0-000-----------|-----------------------------------5-3--5---||

Outro
Gb|-------------------------------------------------|
Db|-------------------------------------------------|
Ab|-------------------------------------------------|
Eb|-0--0--0--0--0--0--0--0--2--2--2--2--2--2--2--2--|
  |
Gb|---------------------------------------------------|
Db|---------------------------------------------------|
Ab|---------------------------------------------------|
Eb|-3--3--3--3--3--3--3--3--5--5--5--5--5--5--5--//\\-|
  |
Gb|---------------------------------||
Db|---------------------------------||
Ab|---------------------------------||
Eb|-0-0000-0-0-0000-0-0000-0-0-1--0-||




  development and support by
dmitry ivanov