rock
 
|tablatures   |lyrics   |discussion forums   |more tabs @ XGuitar.com

Iced Earth tabs

Watching over Me bass tab

ICED EARTH
Watching Over Me
from Something Wicked this Way Comes by Schaffer
Transcripted by Stefano Lopez (toscanino@inwind.it)

FIND EVERY ICED EARTH SONG AND
THE MOST UPDATED VERSION OF THIS SONG AT:

                          The Frozen Palace
                  http://abysslord.com/icedearth/
 
PLEASE DO NOT COPY THIS TAB TO ANOTHER SITE 
WITHOUT AUTHORS' PERMISSION.  THANK YOU.

Tune down  step

Acoustic guitar intro and verse 1

Pre-chorus x2
G|---------------------------------------------||
D|---------------------------------------------||
A|-------------3-333-3--3----------------------||
E|-0-0-0-0------------------3-3-3-3-3--2--3--2-||

Chorus x2
G|---------------------------------------------||
D|---------------------------------------------||
A|-------------3-333-3--3----------------------||
E|-0-0-0-0------------------3-3-3-3-3--2--3--2-||

G|-------------------------------||
D|-------------------------------||
A|---------3---3-3---------------||
E|---0-------------3----2---3--2-||

Verse 2 x4
G|-------------------------------||
D|-------------------------------||
A|---------3---3-3---------------||
E|---0-------------3----2---3--2-||

Pre-chorus x2
G|---------------------------------------------||
D|---------------------------------------------||
A|-------------3-333-3--3----------------------||
E|-0-0-0-0------------------3-3-3-3-3--2--3--2-||

Chorus x2
G|---------------------------------------------||
D|---------------------------------------------||
A|-------------3-333-3--3----------------------||
E|-0-0-0-0------------------3-3-3-3-3--2--3--2-||

Solo 
G|-----------------------------------------------------------------------|X2
D|-----------------------------------------------------------------------|
A|-------------------3-3-3-3-3-3-3333------------------------------------|
E|--0-0-0-0-0-0-0000-------------------3-3-3-3-3-3-333-2-2-2-3-3-3-2-2-2-|

G|--------------------------------------------------|
D|--------------------------------------------------|
A|--3-333-3-3--5-555-5-5--3-333-3-3--5-55-5-5-5-5-5-|
E|--------------------------------------------------|

G|--------------------------------------------------------||End of Solo
D|--------------------------------------------4-5---------||
A|--3-333-3-3--5-555-5-5--2-2-2-2-2-2-2-2-2-2-----2-3-----||
E|----------------------------------------------------2-3-||




Pre-chorus x2
G|---------------------------------------------||
D|---------------------------------------------||
A|-------------3-333-3--3----------------------||
E|-0-0-0-0------------------3-3-3-3-3--2--3--2-||

Chorus x2
G|---------------------------------------------||
D|---------------------------------------------||
A|-------------3-333-3--3----------------------||
E|-0-0-0-0------------------3-3-3-3-3--2--3--2-||

Pre-chorus x2
G|---------------------------------------------||
D|---------------------------------------------||
A|-------------3-333-3--3----------------------||
E|-0-0-0-0------------------3-3-3-3-3--2--3--2-||

Chorus (til fade out)
G|---------------------------------------------||
D|---------------------------------------------||
A|-------------3-333-3--3----------------------||
E|-0-0-0-0------------------3-3-3-3-3--2--3--2-||


  development and support by
dmitry ivanov