rock
 
|tablatures   |lyrics   |discussion forums   |more tabs @ XGuitar.com

Iced Earth tabs

Vengeance Is Mine bass tab

ICED EARTH
Vengeance Is Mine
from The Dark Saga by Schaffer, Schawver, Barlow
Transcripted by Stefano Lopez (toscanino@inwind.it)

FIND EVERY ICED EARTH SONG AND
THE MOST UPDATED VERSION OF THIS SONG AT:

                          The Frozen Palace
                  http://abysslord.com/icedearth/

PLEASE DO NOT COPY THIS TAB TO ANOTHER SITE 
WITHOUT AUTHORS' PERMISSION.  THANK YOU.

Tune down  step

Intro                   X4|
G|------------------------|--------||
D|------------------------|--------||
A|------------2-----------|--------||
E|-0-r----0-0----0-0-1-r--|--0--r--||

G|---------||
D|---------||
A|---3-----||
E|-1---1-3-||

Riff 1 x2
G|------------------------------------------------------------||
D|------------------------------------------------------------||
A|---------------------------3--------------------------3-----||
E|-0-000-0-000-0-000-0-000-1---1-3--0-000-0-000--1-r--1---1-3-||

Verse 1 x4
G|------------------------------------------------------------||
D|------------------------------------------------------------||
A|---------------------------3--------------------------3-----||
E|-0-000-0-000-0-000-0-000-1---1-3--0-000-0-000--1-r--1---1-3-||

G|---------------------------------|---------------------------------||
D|---------------------------------|---------------------------------||
A|-3-----3-----3---4-----4-----4---|-1-----1-----1---3---3-----------||
E|---111---111---1---111---111---1-|---111---111---1---1---111-1-1-1-||

Verse 2 x4
G|------------------------------------------------------------||
D|------------------------------------------------------------||
A|---------------------------3--------------------------3-----||
E|-0-000-0-000-0-000-0-000-1---1-3--0-000-0-000--1-r--1---1-3-||

Chorus x2
G|---------------------------------|---------------------------------|
D|---------------------------------|---------------------------------|
A|---------------------------------|---------------------------------|
E|-1-1-1-1-1-1-1-1-1-1-1-1-1-1-1-1-|-1-1-1-1-1-1-1-1-1-1-1-1-1-1-1-1-|
 |
G|---------------------------------|-------------------------------------||
D|---------------------------------|-------------------------------------||
A|---------------------------------|-------------------------------------||
E|-1\0-0-000-0-0-0-0-0-0-0-1-111-1-|-1\0-0-000-0-0-0-0-0-0-0-0-0-1-1-1-1-||

Solo 1            X4|
G|------------------|---------------------------------||X2
D|------------------|---------------------------------||
A|------------------|---------------------------------||
E|-1-1-1-1-1-1-1\0--|-0-000-0-0-0-0-0-0-0-0-0-0-0-0-0-||

Pre-solo 2
G|---------------------------------|--------------------------||
D|---------------------------------|--------------------------||
A|---------------------------------|--------------------------||
E|---------------------------------|-1--r-----3--3-3--0/1-0/1-||
Solo 2                                X3|
G|--------------------------------------|--------------------------||X3
D|--------------------------------------|--------------------------||
A|--------------------------------------|--------------------------||
E|-0-0-3-0-0-1-0-0-0-0-0-1-0-0--0/1-0/1-|-1-1-111--3--3-3--0/1-0/1-||

Verse 3 x4
G|------------------------------------------------------------||
D|------------------------------------------------------------||
A|---------------------------3--------------------------3-----||
E|-0-000-0-000-0-000-0-000-1---1-3--0-000-0-000--1-r--1---1-3-||

Chorus x4
G|---------------------------------|---------------------------------|
D|---------------------------------|---------------------------------|
A|---------------------------------|---------------------------------|
E|-1-1-1-1-1-1-1-1-1-1-1-1-1-1-1-1-|-1-1-1-1-1-1-1-1-1-1-1-1-1-1-1-1-|
 |
G|---------------------------------|-------------------------------------||
D|---------------------------------|-------------------------------------||
A|---------------------------------|-------------------------------------||
E|-1\0-0-000-0-0-0-0-0-0-0-1-111-1-|-1\0-0-000-0-0-0-0-0-0-0-0-0-1-1-1-1-||

Outro                   X4|
G|------------------------|--------||
D|------------------------|--------||
A|------------2-----------|--------||
E|-0-r----0-0----0-0-1-r--|--0--r--||
  development and support by
dmitry ivanov