rock
 
|tablatures   |lyrics   |discussion forums   |more tabs @ XGuitar.com

Iced Earth tabs

Travel in Stygian bass tab

ICED EARTH
Travel in Stygian
from Night of the Stormrider & Days of Purgatoy by Schaffer
Transcripted by Stefano Lopez (toscanino@inwind.it)

FIND EVERY ICED EARTH SONG AND
THE MOST UPDATED VERSION OF THIS SONG AT:

                          The Frozen Palace
                  http://abysslord.com/icedearth/
 
PLEASE DO NOT COPY THIS TAB TO ANOTHER SITE 
WITHOUT AUTHORS' PERMISSION.  THANK YOU.

Tune  step down

Intro x8 
G|-------------------------|-------------------------||
D|-------------------------|-------------------------||
A|-------4-444-2-222-5-555-|-------4-444-2-222-4-2---||
E|-2-222-------------------|-2-222-----------------3-||

Pre-riff                                          
G|------------------------------------------------|||X2
D|------------------------------------------------||
A|------------------------------------------------||
E|--2-r---2-0-3-r---3-0-2-r---2-0--5555-5--3333-3-||

Pre-riff 1                        x2|                                x2|
G|----------------------------------|----------------------------------||
D|----------------------------------|----------------------------------||
A|--------------------------4-5-4---|--------------------------5-6-5---||
E|--2-----------------------------5-|--3-3---------------3-3---------6-||

Riff 1                            x2|                                x2|
G|----------------------------------|----------------------------------||
D|----------------------------------|----------------------------------||
A|------4-----2---5---4-----4-5-4---|------5-----3---6---5-----5-6-5---||
E|--2-2---222---2---2---222-------5-|--3-3---333---3---3---333-------6-||

Riff 1b                           x2|                                x2|
G|----------------------------------|----------------------------------||
D|----------------------------------|----------------------------------||
A|--------------------------------5-|--------------------------------6-||
E|--2-2-2-222-2-2-2-2-2-222-2-3-2---|--3-3-3-333-3-3-3-3-3-333-3-4-3---||

Pre-verse x2
G|-----------------------------------------------------------||
D|-----------------------------------------------------------||
A|-----------------------------------------------------------||
E|-2-2-2-2--2-r--5555-5--3333-3--2-222-2-2-r--5555-5--3333-3-||

Verse 1                           x2|                                x2|
G|----------------------------------|----------------------------------||X2
D|----------------------------------|----------------------------------||
A|------4-----2---5---4-----4-5-4---|------5-----3---6---5-----5-6-5---||
E|--2-2---222---2---2---222-------5-|--3-3---333---3---3---333-------6-||

G|-----------------------------------------------------------||X2
D|-----------------------------------------------------------||
A|-----------------------------------------------------------||
E|-2-2-2-2--2-r--5555-5--3333-3--2-222-2-2-r--5555-5--3333-3-||

Riff 2 x2
G|---------------------------------------------------------------||
D|---------------------------------------------------------------||
A|---------------------------------------------------------------||
E|-0h2-2-222-222-222-222-222-222-2-0h2-2-222-222-2-0-2-3-5--3--5-||



Verse 2 x4
G|---------------------------------------------------------------||
D|---------------------------------------------------------------||
A|---------------------------------------------------------------||
E|-0h2-2-222-222-222-222-222-222-2-0h2-2-222-222-2-0-2-3-5--3--5-||

Riff2b
G|------------------------------------------------------------|
D|------------------------------------------------------------|
A|------------------------------------------------------------|
E|-2222-2--2-2-2--0000-0--0-0-0--3333-3--3-3-3--2222-2--2-2-2-|
 |
G|---------------------------------|---------------------------------|
D|---------------------------------|---------------------------------|
A|---------------------------------|---------------------------------|
E|-0h2-2-222-222-222-222-222-222-2-|-0h2-2-222-222-222-222-222-222-2-|
 |
G|------------------------------------------------------------||
D|------------------------------------------------------------||
A|------------------------------------------------------------||
E|-2222-2--2-2-2--0000-0--0-0-0--3333-3--3-3-3--2222-2--2-2-2-||

Riff 3 x2
G|--------------------4-------------------------4-------|
D|--5p4-4-444-444-444---7-5-4-5p4-4-444-444-444---7-5-4-|
A|------------------------------------------------------|
E|------------------------------------------------------|
 |
G|----------------------------------------||
D|----------------------------------------||
A|--7777-7-10101010-10-5555-5-10101010-10-||
E|----------------------------------------||

Interlude                          X2|
G|------------(7)--------------(7)---|------------------|
D|--------(7)--------------(7)-------|------------------|()=harmonics
A|------------------3-r--------------|--2-r---0-r--3----|
E|-0-r-------------------------------|----------------3-|
 |                                                          |1.
G|----------------------------------------------------------|------------------|
D|----------------------------------------------------------|------------------|
A|------------------3-r---------------------------3-r-------|-2-r---0-r--3-----|
E|-0-r----------------------------0-r-----------------------|----------------3-|
 |2.
G|----------------------------------||
D|----------------------------------||
A|--2-2-2-2-2-2-2-2-0-0-0-0-3-3-----||
E|------------------------------3-3-||

Chorus x3
G|---------------------------------------------------------|
D|---------------------------------------------------------|
A|---------7------------7--7-7---------7------------7--5-5-|
E|-000-0-0---000-7/-8-7--------000-0-0---000-7/-8-7--------|
 |
G|-----------------------------|-----------------------------------------||
D|-----------------------------|-----------------------------------------||
A|---------7------------7--7-7-|-5555-5-5555-5--55-5--3333-3-3333-3-33-3-||
E|-000-0-0---000-7/-8-7--------|-----------------------------------------||



Post-chorus x4
G|----------------------------------------------------||
D|------------10-9-7-9-7----------------7-5-4-5-7-5-4-||
A|-777-7-7-7-------------10--555-5-5-5----------------||
E|----------------------------------------------------||

G|---|--------------------------------||
D|---|--------------------------------||
A|---|------------------3-r-------5-r-||
E|-0-|-0-r------3-r-------------------||

Riff 4              X2|                             |1.           |2.                             
G|--------------------|-----------------------------|-------------|--------||X2
D|--------------------|-----------------------------|-------------|--------||
A|-7777-7-7777-7-77-7-|-----------------------------|-------------|--------||
E|--------------------|-3333-3-3333-3-33-3-5-5555-5-|-5555-5-55-5-|-//////-||

Solo                X2|
G|--------------------|----------------------------------------||X4
D|--------------------|----------------------------------------||
A|--------------------|----------------------------------------||
E|-0000-0-0000-0-00-0-|--3333-3-3333-3-33-3-2222-2-2222-2-22-2-||

Solo ending                        X2|                                 X2| 
G|-----------------------------------|-----------------------------------||
D|-----------------------------------|-----------------------------------||
A|-2222-3333-2222-0000-2222-333-2--2-|-----------------------------------||
E|-----------------------------------|-2222-3333-2222-0000-2222-333-2--2-||

Riff 5 
G|----------------------|
D|----------------------|
A|----------------------|
E|-2--2-2--2-2--2-3-2-0-|
 |
G|----------------------||X23
D|----------------------||
A|----------------------||
E|-2--2-2--2-2--2-0-2-3-||
                                                   |on 2nd time
G|-------------------------------------------------|-----||X2
D|-------------------------------------------------|-----||
A|-5-3-2-3----0-2-3-2------------------------------|-----||
E|-----------------------3-5-7-5----3-2-0-3-2-0-2--|--r--||

Riff 2 x2
G|---------------------------------------------------------------||
D|---------------------------------------------------------------||
A|---------------------------------------------------------------||
E|-0h2-2-222-222-222-222-222-222-2-0h2-2-222-222-2-0-2-3-5--3--5-||

Verse 3 x4
G|---------------------------------------------------------------||
D|---------------------------------------------------------------||
A|---------------------------------------------------------------||
E|-0h2-2-222-222-222-222-222-222-2-0h2-2-222-222-2-0-2-3-5--3--5-||

Riff2b
G|------------------------------------------------------------|
D|------------------------------------------------------------|
A|------------------------------------------------------------|
E|-2222-2--2-2-2--0000-0--0-0-0--3333-3--3-3-3--2222-2--2-2-2-|
 |
G|---------------------------------|---------------------------------|
D|---------------------------------|---------------------------------|
A|---------------------------------|---------------------------------|
E|-0h2-2-222-222-222-222-222-222-2-|-0h2-2-222-222-222-222-222-222-2-|
 |
G|------------------------------------------------------------||
D|------------------------------------------------------------||
A|------------------------------------------------------------||
E|-2222-2--2-2-2--0000-0--0-0-0--3333-3--3-3-3--2222-2--2-2-2-||

Riff 3 x2
G|--------------------4-------------------------4-------|
D|--5p4-4-444-444-444---7-5-4-5p4-4-444-444-444---7-5-4-|
A|------------------------------------------------------|
E|------------------------------------------------------|
 |
G|----------------------------------------||
D|----------------------------------------||
A|--7777-7-10101010-10-5555-5-10101010-10-||
E|----------------------------------------||

Chorus x3
G|---------------------------------------------------------|
D|---------------------------------------------------------|
A|---------7------------7--7-7---------7------------7--5-5-|
E|-000-0-0---000-7/-8-7--------000-0-0---000-7/-8-7--------|
 |
G|-----------------------------|-----------------------------------------||
D|-----------------------------|-----------------------------------------||
A|---------7------------7--7-7-|-5555-5-5555-5--55-5--3333-3-3333-3-33-3-||
E|-000-0-0---000-7/-8-7--------|-----------------------------------------||

G|---------------||
D|---------------||
A|---------7--r--||
E|-000-0-0-0--r--||

Outro (piano)
  development and support by
dmitry ivanov