rock
 
|tablatures   |lyrics   |discussion forums   |more tabs @ XGuitar.com

Iced Earth tabs

Transylvania bass tab

IRON MAIDEN	
Transylvania
from Iron Maiden by Steve Harris
Transcripted by Stefano Lopez (toscanino@inwind.it)

FIND EVERY ICED EARTH SONG AND
THE MOST UPDATED VERSION OF THIS SONG AT:

                          The Frozen Palace
                  http://abysslord.com/icedearth/

PLEASE DO NOT COPY THIS TAB TO ANOTHER SITE 
WITHOUT AUTHORS' PERMISSION.  THANK YOU.

Tuning:  Eb

 
Intro              X4|                  X3|
|----------|---------|----------|---------|
|----------|-------3-|----------|-------5-|
|--5-------|-----3---|--7-------|-----5---|
|----------|---------|----------|---------|
|
|----------|---------||
|----------|---------||
|--7-------|-----3-5-||
|----------|---------||

Riff 1 x2
|----------------------------|---------------------|
|----------------------------|---------------------|
|-7-7-7--7-5-5--7-7-7--7-5-5-|-5-5-5--5---5--7-7-7-|
|----------------------------|----------7----------|
|
|----------------------------|------------------------7------|
|----------------------------|-----------------9-9-9----9-7--|
|-7-7-7--7-5-5--7-7-7--7-5-5-|-5-5-5--5---5--7---------------|
|----------------------------|----------7--------------------|
|
|----------------------------|---------------------|
|----------------------------|---------------------|
|----------------------------|---------------------|
|-7-7-7--7-5-5--7-7-7--7-5-5-|-5-5-5--5---5--7-7-7-|
|
|----------------------------|---------------------||
|----------------------------|---------------------||
|----------------------------|----------------10-9-||
|-7-7-7--7-5-5--7-7-7--7-5-5-|-5-5-5--5---5-5------||

Riff 2
|--------------|----------------------|X3
|------5-5-5-5-|----------------------|
|-7-5----------|-3-3-3-5-5-5--7-7-7-7-|
|--------------|----------------------|
|
|--------------|-------||
|------5-5-5-5-|-------||
|-7-5----------|-3--5--||
|--------------|-------||
                                          
Riff 1 
|----------------------------|---------------------|
|----------------------------|---------------------|
|-7-7-7--7-5-5--7-7-7--7-5-5-|-5-5-5--5---5--7-7-7-|
|----------------------------|----------7----------|
|
|----------------------------|------------------------7------|
|----------------------------|-----------------9-9-9----9-7--|
|-7-7-7--7-5-5--7-7-7--7-5-5-|-5-5-5--5---5--7---------------|
|----------------------------|----------7--------------------|
|



|----------------------------|---------------------|
|----------------------------|---------------------|
|----------------------------|---------------------|
|-7-7-7--7-5-5--7-7-7--7-5-5-|-5-5-5--5---5--7-7-7-|
|
|----------------------------|---------------------||
|----------------------------|---------------------||
|----------------------------|----------------10-9-||
|-7-7-7--7-5-5--7-7-7--7-5-5-|-5-5-5--5---5-5------||

Riff 2
|--------------|----------------------|X3
|------5-5-5-5-|----------------------|
|-7-5----------|-3-3-3-5-5-5--7-7-7-7-|
|--------------|----------------------|
|
|--------------|-------||
|------5-5-5-5-|-------||
|-7-5----------|-3--5--||
|--------------|-------||

|----------|---------|X3
|----------|-------5-|
|--7-------|-----5---|
|----------|---------|
|
|----------|---------||
|----------|---------||
|--7-------|-----3-5-||
|----------|---------||

|-----------|---------------|---------------|-----------------|---------------|
|-----------|-------7-9-7---|---------------|---------5-7-5---|-------3-5-3---|
|-7-7-7-7-7-|-7-7-7-------5-|-5-5-5-5-5-5-5-|-5-5-5-5-------3-|-3-3-3-------5-|
|-----------|---------------|---------------|-----------------|---------------|
|
|---------------|-------7-9-9-9-9-9-7----|------------------|
|-------5-7-5---|---7-9---------------9--|------------------|
|-5-5-5-------7-|-7----------------------|-7-7-7-7-7-7-7-7--|
|---------------|------------------------|------------------| 
|
|-----------------|---------------|---7-5-----------|---------------|
|---------5-7-9---|-------------7-|-7-----7-5-------|-------2-3-5---|
|-7-7-7-7-------5-|-5-5-5-5-5-5---|-----------7-5-3-|-3-3-3-------5-|
|-----------------|---------------|-----------------|---------------|
|
|---------------|-----------9-7---|--------------------|-----------------|
|-------4-5-7---|-------7-9-----7-|-9-7----------------|-----------------|
|-5-5-5-------7-|-7-7-7-----------|-----10-9-10-9----7-|-7-7-7-7-7-7-7-7-|
|---------------|-----------------|---------------10---|-----------------|
|
|-----------------|---------------7-|-5---------------|---------------|
|---------5-7-9---|-----------------|---7-5---5-------|-------2-3-5---|
|-7-7-7-7-------5-|-5-5-5-5-5-5-5---|-------7---7-5-3-|-3-3-3-------5-|
|-----------------|-----------------|-----------------|---------------|
|
|-----------------|-----------------|---------------------------------|
|---------4-5-7---|-----------------|---------------------------------|
|-5-5-5-5-------7-|-7-7-7-7-7-7-7-7-|-7-7-7-7-7-7-7-7-7-7-7-7-7-7-7-7-|
|-----------------|-----------------|---------------------------------|
| 


|------------|-----------------|-----------------|-----------------|
|------------|---------5-7-9---|-----------------|---------4-5-7---|
|-7-r-7-r-7--|--r--7-7-------5-|-5-5-5-5-5-5-5-5-|-5-5-5-5-------3-|
|------------|-----------------|-----------------|-----------------|
|
|---------------|-----------------|-----------------|-----------------|
|-------2-3-5---|---------4-5-7---|-----------------|-----------------|
|-3-3-3-------5-|-5-5-5-5-------7-|-7-7-7-7-7-7-7-7-|-7-7-7-7-7-5---7-|
|---------------|-----------------|-----------------|-------------7---|
|
|-----------------|---------------|---------------5-|-5---------------|
|-----------------|---------5-7-9-|-----------------|---7-5---5-------|
|-7-7-7-7-7-7-7-7-|-7-7-7-7-------|-5-5-5-5-5-5-5---|-------7---7-5-3-|
|-----------------|---------------|-----------------|-----------------|
|
|-----------------|-----------------|---------------------|-------|-------|
|---------2-3-5---|---------4-5-7---|---------------------|-------|-------|
|-3-3-3-3-------5-|-5-5-5-5-------7-|-7-7-7-7-7-7-7-7-7-7-|-7---r-|---r---|
|-----------------|-----------------|---------------------|-------|-------|
|
|-------|-------|-------|-------|-------|-------------------------------|
|-------|-------|-------|-------|-------|-------------------------------|
|-5---r-|---r---|-3---r-|-5---r-|-7---r-|-7-7-7-7-7-7-7-7-7-7-7-7-7-7-7-|
|-------|-------|-------|-------|-------|-------------------------------|
|
|-----------------|---------------|-----------------|-7-5------------|
|-----------------|-------5-9-7---|---------------7-|-----7-5--------|
|-7-7-7-7-7-7-7-7-|-7-7-7-------5-|-5-5-5-5-5-5-5---|---------7-5--3-|
|-----------------|---------------|-----------------|----------------|
|
|---------------|---------------|-------7-9-9-9-9-9-7----|------------------|
|-------2-5-3---|-------4-5-7---|---7-9---------------9--|------------------|
|-3-3-3-------5-|-5-5-5-------7-|-7----------------------|-7-7-7-7-7-7-7-7--|
|---------------|---------------|------------------------|------------------|
|
|-----------------|-----------------|-----------------|---------------|
|---------5-7-9---|-----------------|---------4-5-7---|-------2-3-5---|
|-7-7-7-7-------5-|-5-5-5-5-5-5-5-5-|-5-5-5-5-------3-|-3-3-3-------5-|
|-----------------|-----------------|-----------------|---------------|
|
|-----------------|-----------------|-----------------|
|---------4-5-7---|-----------------|-----------------|
|-5-5-5-5-------7-|-7-7-7-7-7-7-7-7-|-7-7-7-7-7-7-7-5-|
|-----------------|-----------------|-----------------|
| 
|------------|-----------------|---------------7-|-7-5------------|
|------------|---------5-7-9---|-----------------|-----7-5--------|
|-7-r-7-r-7--|--r--7-7-------5-|-5-5-5-5-5-5-5---|---------7-5--3-|
|------------|-----------------|-----------------|----------------|

|---------------|---------------|-----------------------|----------------------|
|-------2-5-3---|-------4-5-7---|-----------------------|-12-14-14-14-14-14-14-|
|-3-3-3-------5-|-5-5-5-------7-|-7-7-7-7-7-7-7-7-7-7-7-|----------------------|
|---------------|---------------|-----------------------|----------------------|  
|
|--------------------|--------------------------|--------------------|
|-14-14-14-12-----r--|--12-12-12-12-12-12-12-12-|-12-12-12-10-----r--|
|-------------14-----|--------------------------|-------------12-----|
|--------------------|--------------------------|--------------------|
|



|---------------------|--------------------|-------------------------|
|--10-10-10--8------r-|-12-12-12-10-----r--|-14-14-14-14-14-14-14-14-|
|---------------10----|-------------12-----|-------------------------|
|---------------------|--------------------|-------------------------|
|
|----------------------|------------------------|-------------------|
|-14-14-14-14-12-----r-|-r-12-14-14-14-14-14-14-|-14-14-14-12-----r-|
|----------------14----|------------------------|-------------14----|
|----------------------|------------------------|-------------------|
|
|-------------------------|--------------------|
|-12-12-12-12-12-12-12-12-|-12-12-12-10-----r--|
|-------------------------|-------------12-----|
|-------------------------|--------------------|
|
|---------------------|--------------------|-------------------------|
|--10-10-10--8------r-|-12-12-12-10-----r--|-14-14-14-14-14-14-14-14-|
|---------------10----|-------------12-----|-------------------------|
|---------------------|--------------------|-------------------------|
|
|--------------------------------|
|-14-14-14-14-14-14-14-12-----r--|
|-------------------------14-----|
|--------------------------------|
|
|-----------------|-----------------|-----------------|-7-5------------|
|-----------------|---------5-9-7---|---------------7-|-----7-5--------|
|-7-7-7-7-7-7-7-7-|-7-7-7-7-------5-|-5-5-5-5-5-5-5---|---------7-5--3-|
|-----------------|-----------------|-----------------|----------------|
|    
|-----------------|-----------------|------------------------|
|---------2-3-5---|---------4-5-7---|-----14-14-14-14-14-14--|
|-3-3-3-3-------5-|-5-5-5-5-------7-|-7-7--------------------|
|-----------------|-----------------|------------------------|
|
|----------------------------|
|-14-14-14-14-14-14-14-12----|
|-------------------------14-|
|----------------------------|
|
|-----------------|-----------------|-----------------|-7-5------------|
|-----------------|---------5-9-7---|---------------7-|-----7-5--------|
|-7-7-7-7-7-7-7-7-|-7-7-7-7-------5-|-5-5-5-5-5-5-5---|---------7-5--3-|
|-----------------|-----------------|-----------------|----------------|
|
|-----------------|-----------------|-------------------------------|
|---------2-3-5---|---------4-5-7---|-------------------------------|
|-3-3-3-3-------5-|-5-5-5-5-------7-|-7-7-7-7-7-7-7-7-7-7-7-7-7-7-7-|
|-----------------|-----------------|-------------------------------|
|
|-------------------|---------|------------|-------|--------|-----------||
|-------------------|---------|------------|-------|--------|-----------||
|-7-7-7-7-7-7-7-7-7-|----7----|--10-9-7-5--|--3-2--|--7-----|-----------||
|-------------------|---------|------------|-------|----0---|--0-0-0-0--||




  development and support by
dmitry ivanov