rock
 
|tablatures   |lyrics   |discussion forums   |more tabs @ XGuitar.com

Iced Earth tabs

The Suffering Scarred guitar tab

Iced Earth:  Scarred

transcribed by:  Russ Elton (webmaster@abysslord.com)
     edited by:  Chris Van Lommel (Chris.Vanlommel@siemens.atea.be)

FIND EVERY ICED EARTH SONG AND
THE MOST UPDATED VERSION OF THIS SONG AT:

                          The Frozen Palace
                  http://abysslord.com/icedearth/

Date last modified:  April 24, 2003
  
PLEASE DO NOT COPY THIS TAB TO ANOTHER SITE 
WITHOUT AUTHORS' PERMISSION.  THANK YOU.

Tuning: Eb

Riff 1
Guitar 1 (Clean)   x2
eb|-----------------|------------------|
Bb|-----------------|------------------|
Gb|-----------------|------------------|
Db|-----2-------2---|-----3--------3---|
Ab|---2---2---2---2-|---1---1----1---1-|
Eb|-0-------0-------|-1--------1-------|
                   x2
eb|-----------------|--------------------------|
Bb|-----------------|--------------------------|
Gb|-----------------|--------------------------|
Db|-----2-------2---|-----3--------3-------3---|
Ab|---2---2---2---2-|---1---1----1---1---1---1-|
Eb|-0-------0-------|-1--------1-------1-------|


Guitar 2 (Distortion)
eb|------------------------13-15--13-12-10-|
Bb|-12-13-12-10---13--12-------------------|
Gb|----------------------------------------|
Db|----------------------------------------|
Ab|----------------------------------------|
Eb|----------------------------------------|

eb|------------------------13-15--13-12-10--(10)b12-|
Bb|-12-13-12-10---13--12----------------------------|
Gb|-------------------------------------------------|
Db|-------------------------------------------------|
Ab|-------------------------------------------------|
Eb|-------------------------------------------------|

Guitar 3 (Distortion)
eb|-10-12-10--8---12--10----17-18--17-15-13-|
Bb|-----------------------------------------|
Gb|-----------------------------------------|
Db|-----------------------------------------|
Ab|-----------------------------------------|
Eb|-----------------------------------------|

eb|-10-12-10--8---12--10----17-18--17-15-13--(13)b15-|
Bb|--------------------------------------------------|
Gb|--------------------------------------------------|
Db|--------------------------------------------------|
Ab|--------------------------------------------------|
Eb|--------------------------------------------------|



Riff 2 (Distortion)
eb|----------------------------|
Bb|----------------------------|
Gb|----------------------------|
Db|------------------3----3--3-|
Ab|-2----2--2--------1----1--1-|
Eb|-0----0--0--------1----1--1-|


Riff 3
Guitar 1 (Clean)
eb|-----------------------------------------|
Bb|-----------------------------------------|
Gb|-----------------------------------------|
Db|------2---------------3-----------3------|
Ab|---------2----------1---1------1-----1---|
Eb|-0----------------1----------1---------1-|
   "Darkness calls..."

Guitar 2 (Distortion, harmony note in () )
eb|-13~~--13h15-13h15-13-12---10-12------------------------|
Bb|---------------------------------12---12b13-[slow bend]-|
Gb|--------------------------------------(9b10)------------|
Db|--------------------------------------------------------|
Ab|--------------------------------------------------------|
Eb|--------------------------------------------------------|


Play Riff 2
Play Riff 3    "It attacks me..."

Guitar fill over Riff 3 (harmony notes in () )
eb|-13~~--13h15-13h15-13-12---10-12----|
Bb|---------------------------------12-|
Gb|------------------------------------|
Db|------------------------------------|
Ab|------------------------------------|
Eb|------------------------------------|

eb|------------------------|
Bb|-12b13r12-12-10---------|
Gb|-(9b10r9---9--7)-12-11--|
Db|----------------(10--9)-|
Ab|------------------------|
Eb|------------------------|

Play Riff 2    "I brought this all..."


Riff 4
Guitar 1 (Clean)
eb|-------------------------------------|
Bb|-------------------------------------|
Gb|-------------------------------------|
Db|---9---9---9---9---10---10---10---10-|
Ab|-7---7---7---7---8----8----8----8----|
Eb|-------------------------------------|
    * * * * * * * * *  * *  * *  * *  *
eb|---------------------------------|
Bb|---------------------------------|
Gb|---------------------------------|
Db|---7---7---7---7---9---9---9---9-|
Ab|-5---5---5---5---7---7---7---7---|
Eb|---------------------------------|
    * * * * * * * * * * * * * * * * 

Guitar 2 (Distortion)
eb|----------------------------------|
Bb|----------------------------------|
Gb|----------------------------------|
Db|----------------------------------|
Ab|-2---------5---------3----------2-|
Eb|-0---------3---------1----------0-|
   "And so it's begun..."


Riff 5
Guitar 1
eb|---------------------------|
Bb|---------------------------|
Gb|---------------------------|
Db|---------------------------|
Ab|-2-------------------------|
Eb|-0-00000000000000000000000-|
      *********************** 
eb|---------------------------|
Bb|---------------------------|
Gb|---------------------------|
Db|---------------------------|
Ab|-3-------------------------|
Eb|-1-11111111111111111111111-|
      *********************** 

Guitar 2
eb|-----------------------------------------|
Bb|-----------------------------------------|
Gb|---------------------------------9-------|
Db|-9-10-9--------------9-10-----12---12-10-|
Ab|--------12-11--11-12------12-------------|
Eb|-----------------------------------------|

Guitar 3 (comes in the 3rd and 4th times)
eb|------------------------------------------|
Bb|---------------------------------10-------|
Gb|-9-10-9-----------------9-----12----12-10-|
Db|--------12--9---9-10-12---10--------------|
Ab|------------------------------------------|
Eb|------------------------------------------|


Riff 6
Guitar 1
eb|---------------------------------------|
Bb|---------------------------------------|
Gb|---------------------------------------|
Db|-999999-777777-6666-666666-777777-9999-|
Ab|---------------------------------------|
Eb|---------------------------------------|
    ****** ****** **** ****** ****** **** 
eb|---------------------------------------------|
Bb|---------------------------------------------|
Gb|---------------------------------------------|
Db|-101010101010-999999-7777-999999-777777-6666-|
Ab|---------------------------------------------|
Eb|---------------------------------------------|
     * * * * * * ****** **** ****** ****** ****

Guitar 2 (Comes in the 2nd time)
eb|---------------------------------------|
Bb|---------------------------------------|
Gb|-777777-555555-4444-444444-555555-7777-|
Db|---------------------------------------|
Ab|---------------------------------------|
Eb|---------------------------------------|
    ****** ****** **** ****** ****** **** 
eb|---------------------------------------|
Bb|---------------------------------------|
Gb|-999999-777777-5555-777777-555555-4444-|
Db|---------------------------------------|
Ab|---------------------------------------|
Eb|---------------------------------------|
    ****** ****** **** ****** ****** ****

Riff 7
Guitar 1
eb|----------------------------------------|
Bb|----------------------------------------|
Gb|-9--7-------------------------7---------|
Db|-------10--9--7--6--7--9--10------10--9-|
Ab|----------------------------------------|
Eb|----------------------------------------|

eb|--------------------------------------|
Bb|--------------------------------------|
Gb|-9--7---------------------------------|
Db|-------10--9--7--6--7--9--10--9--7--6-|
Ab|--------------------------------------|
Eb|--------------------------------------|

Guitar 2 (Comes in the 2nd time)
eb|------------------------------------|
Bb|-9----------------------------------|
Gb|---10--9--7-----------7--9--10--9-7-|
Db|-------------10-9-10----------------|
Ab|------------------------------------|
Eb|------------------------------------|

eb|-----------------------------------|
Bb|-9---------------------------------|
Gb|---10--9--7-----------7--9--7------|
Db|-------------10-9-10----------10-9-|
Ab|-----------------------------------|
Eb|-----------------------------------|



Play Riff 2   "I brought this all..."

Riff 2a
eb|-----------------------------|
Bb|-----------------------------|
Gb|-----------------------------|
Db|-----------------------------|
Ab|-2--2-2-2-2-2-2--2-2-2-2-2-2-|
Eb|-0--0-0-0-0-0-0--0-0-0-0-0-0-|
       * * *   *    * * *   * * 
   "I brought this all..."
eb|-----------------------------|
Bb|-----------------------------|
Gb|-----------------------------|
Db|-3--3-3-3-3-3-3--3-3-3-3-3-3-|
Ab|-1--1-1-1-1-1-1--1-1-1-1-1-1-|
Eb|-1--1-1-1-1-1-1--1-1-1-1-1-1-|
       * * *   *    * * *   * *
eb|-----------------------------|
Bb|-----------------------------|
Gb|-----------------------------|
Db|-----------------------------|
Ab|-2--2-2-2-2-2-2--2-2-2-2-2-2-|
Eb|-0--0-0-0-0-0-0--0-0-0-0-0-0-|
       * * *   *    * * *   * * 
   "I brought this all..."
eb|--------------------------------|
Bb|--------------------------------|
Gb|--------------------------------|
Db|-3--3-3-3-3-3-3--3-3-3-3-3-2-2--|
Ab|-1--1-1-1-1-1-1--1-1-1-1-1-0-0--|
Eb|-1--1-1-1-1-1-1--1-1-1-1-1------|
       * * *   *    * * *   *


Notation:

10^        = bend a quarter step.
10b11      = bend a half step.
10b12      = bend a full step.
10b12r10   = bend and release.
[10]12     = pre-bend.
[10]12r10  = pre-bend and release.
{14}       = pick the 14th fret while holding the most 
             previous bend.
<17>       = touch the string above the 17th fret while 
             previous note(s) is(are) still ringing.

10b13*     = tremolo bar bend, from the 10th fret to the 13th fret.
7d4*       = tremolo bar dive, from the 7th fret to the 4th fret. 
12~*       = tremolo bar vibrato.

x   =  mute with fret-hand
*   =  palm mute
X\\ =  pick slide
h   =  hammer-on
p   =  pull-off
~   =  vibrato
t   =  finger tap
/   =  slide up
\   =  slide down
h.  =  natural harmonics
a   =  artificial harmonics
(9) =  ghost note
tm  =  trem picking
tr  =  trill
  development and support by
dmitry ivanov