rock
 
|tablatures   |lyrics   |discussion forums   |more tabs @ XGuitar.com

Iced Earth tabs

The Suffering Scarred bass tab

ICED EARTH
Scarred
from The Dark Saga by Schaffer, Schawver
Transcripted by Stefano Lopez (toscanino@inwind.it)

FIND EVERY ICED EARTH SONG AND
THE MOST UPDATED VERSION OF THIS SONG AT:

                          The Frozen Palace
                  http://abysslord.com/icedearth/

PLEASE DO NOT COPY THIS TAB TO ANOTHER SITE 
WITHOUT AUTHORS' PERMISSION.  THANK YOU.

Tune down  step

The Suffering - part 1

Intro                                       |only on 2nd time
G|-----------------|------------------------|-----||
D|-----------------|------------------------|-----||
A|-----------------|------------------------|-/-7-||
E|-0---r-----------|-1--r------------1--r---|-----||

Riff 1 x4
G|----------------------------------||
D|----------------------------------||
A|-------------------1-1----1--1--r-||
E|-0-----0--0--r--------------------||

Pre-verse x2
G|-------------------------------------------||
D|------2------------------------------------||
A|---------2----------------------------/-7--||
E|-0---------------1-r----------1-r----------||

Verse 1 x3
G|-------------------------------------------||
D|------2------------------------------------||
A|---------2----------------------------/-7--||
E|-0---------------1-r----------1-r----------||

Riff 1 x4
G|----------------------------------||
D|----------------------------------||
A|-------------------1-1----1--1--r-||
E|-0-----0--0--r--------------------||

Pre-verse 2 x2
G|-------------------------------------------||
D|------2------------------------------------||
A|---------2----------------------------/-7--||
E|-0---------------1-r----------1-r----------||

Verse 2 x3
G|-------------------------------------------||
D|------2------------------------------------||
A|---------2----------------------------/-7--||
E|-0---------------1-r----------1-r----------||

Chorus x4
G|----------------------------------||
D|----------------------------------||
A|-------------------1-1----1--1--r-||
E|-0-----0--0--r--------------------||

Verse 4 x2
G|-------------------------------------||
D|-------------------------------------||
A|-------------------------------------||
E|-0--r------3--r------1--r-------0--r-||

Riff 2 x4
G|---------------------------|---------------------------||
D|---------------------------|---------------------------||
A|---------------------------|---------------------------||
E|-0-00000000000000000000000-|-1-11111111111111111111111-||

Riff 3 x2
G|---------------------------|---------------------------||
D|---------------------------|---------------------------||
A|---------------------------|---------------------------||
E|-0-00000000000000000000000-|-1-11111111111111111111111-||

Riff 4 x4
G|---------------------------|---------------------------||
D|---------------------------|---------------------------||
A|---------------------------|---------------------------||
E|-0-00000000000000000000000-|-1-11111111111111111111111-||

Chorus x4
G|----------------------------------||
D|----------------------------------||
A|-------------------1-1----1--1--r-||
E|-0-----0--0--r--------------------||

Chorus (outro)                                                   X4|
Gb|-----------------------------------------------------|-----||
Db|-----------------------------------------------------|-----||
Ab|---------------------------1-1-1-1-1-1-1-1-1-1-1-1-1-|--0--||
Eb|-0-0-0-0-0-0-0-0-0-0-0-0-0---------------------------|-----||
To 'Slave of The Dark'
	

  development and support by
dmitry ivanov