rock
 
|tablatures   |lyrics   |discussion forums   |more tabs @ XGuitar.com

Iced Earth tabs

The Ripper bass tab

JUDAS PRIEST
The Ripper
from a tribute to JUDAS PRIEST legend of metal VOL. II by Tipton
- cover by ICED EARTH -
Transcripted by Stefano Lopez (toscanino@inwind.it)

FIND EVERY ICED EARTH SONG AND
THE MOST UPDATED VERSION OF THIS SONG AT:

                          The Frozen Palace
                  http://abysslord.com/icedearth/

PLEASE DO NOT COPY THIS TAB TO ANOTHER SITE 
WITHOUT AUTHORS' PERMISSION.  THANK YOU.

Tune down  step

Intro & verse 1

G|-------------------------||
D|-------------------------||
A|-0---0---0---0-----------||
E|-----------------5-3-3-3-||

Verse 2
G|-------------------------||X4
D|-------------------------||
A|-0-0-0-0-0-0-0-0---------||
E|-----------------5-3-3-3-||

Chorus
G|---------------------------------------------------||
D|---------------------------------------------------||
A|-3-3-3-3-3-3---------------------------------------||
E|-------------3-3-3-3-3-3-3-3-3-3--1-1-1-1-1-1-0-r--||

G|-------------------------||
D|-----------------3-2---1-||
A|-0-0-0-0-0-0-0-0-----3---||
E|-------------------------||

Verse 3
G|-------------------------||X4
D|-------------------------||
A|-0-0-0-0-0-0-0-0---------||
E|-----------------5-3-3-3-||

Chorus
G|---------------------------------------------------||
D|---------------------------------------------------||
A|-3-3-3-3-3-3---------------------------------------||
E|-------------3-3-3-3-3-3-3-3-3-3--1-1-1-1-1-1-0-r--||

Pre-solo                 X3|
G|-------------------------|-7---7----||
D|-----------------3-2---1-|---9---10-||
A|-0-0-0-0-0-0-0-0-----3---|----------||
E|-------------------------|----------||

Solo 
G|----------------------------|X2
D|----------------------------|
A|-7-777-7--7-7-7-7-7--7-77-5-|
E|----------------------------|
 |
G|----------------------------|-----------------------------------||
D|----------------------------|-----------------------------------||
A|-0-000-0--0-0-0-0-0--0-00---|-0-000-0---3---2-----0----------7\-||
E|--------------------------3-|-----------------3-------X-3-------||




Guitar interlude 

Interlude ending
G|---------|---------||
D|---------|---------||
A|-------0-|-------0-||
E|-0-r-----|-0-r-----||

Verse 4
G|-------------------------||X8
D|-------------------------||
A|-0-0-0-0-0-0-0-0---------||
E|-----------------5-3-3-3-||

Chorus
G|---------------------------------------------------||
D|---------------------------------------------------||
A|-3-3-3-3-3-3---------------------------------------||
E|-------------3-3-3-3-3-3-3-3-3-3--1-1-1-1-1-1-0-r--||

Pre-solo                 X3|
G|-------------------------|-7---7--------------|
D|-----------------3-2---1-|---9---10---10-9-10-|
A|-0-0-0-0-0-0-0-0-----3---|----------7---------|
E|-------------------------|--------------------|
 |
G|-----------------------------||
D|-----------------------------||
A|--7-r--------------3-2-3--0--||
E|-----------------0-----------||




  development and support by
dmitry ivanov