rock
 
|tablatures   |lyrics   |discussion forums   |more tabs @ XGuitar.com

Iced Earth tabs

The Reckoning bass tab

intro / chorus/ slow

F#:------------------------|---------------------------|------------------------|---------
C#:-------------------9-9-9|-------------------10-10-10|-------------------9-9-9|-7------9
G#:-7-7-7--7-7--7-7-7------|-7-7-7--7-7--7-7-7---------|-7-7-7--7-7--7-7-7------|---10-9--
D#:------------------------|---------------------------|------------------------|---------

Verse

F#:----------------|------
C#:----------------|------
G#:-2/3---2/3------|-3-2-0
D#:-----0-----0-0-0|------

verse/bridge

F#:-------------------|-----------------|------------------|----------------
C#:-------------------|-5---------------|------------------|-5-------7------
G#:-5-7-7-7-7-7-7-7-7-|---7-7-7-7-7-7-7-|-5-7-7-7-7-7-7-7-7|---7-7-7---0-0--
D#:-------------------|-----------------|------------------|---------------3

Work out the timings etc yourself, those are the main riffs, for the slower bit play the intro
any questions/comments email me remleiz@hotmail.com
  development and support by
dmitry ivanov