rock
 
|tablatures   |lyrics   |discussion forums   |more tabs @ XGuitar.com

Iced Earth tabs

The Reaping Stone bass tab

ICED EARTH
Reaping Stone
from Something Wicked this Way Comes by Schaffer, Barlow, MacDonough
Transcripted by Stefano Lopez (toscanino@inwind.it)

FIND EVERY ICED EARTH SONG AND
THE MOST UPDATED VERSION OF THIS SONG AT:

                          The Frozen Palace
                  http://abysslord.com/icedearth/

PLEASE DO NOT COPY THIS TAB TO ANOTHER SITE 
WITHOUT AUTHORS' PERMISSION.  THANK YOU.

Tune down  step

Intro x4
G|--------9---9--8-----8-7------5------||
D|--7--7----7--------7-------7----5----||
A|-------------------------------------||
E|-------------------------------------||

Verse 1 x4
G|--------9---9--8-----8-7------5------||
D|--7--7----7--------7-------7----5----||
A|-------------------------------------||
E|-------------------------------------||

Riff 2 (chorus) x2
G|--------------------------------------------------------||
D|--------------------------------------------------------||
A|------------------------3---------------------------3---||
E|-5--5--5--5--5--5--5--3---3--5--5--5--5--5--5--5--3---3-||

Verse 2 x4
G|--------9---9--8-----8-7------5------||
D|--7--7----7--------7-------7----5----||
A|-------------------------------------||
E|-------------------------------------||

Chorus x2
G|--------------------------------------------------------||
D|--------------------------------------------------------||
A|------------------------3---------------------------3---||
E|-5--5--5--5--5--5--5--3---3--5--5--5--5--5--5--5--3---3-||

Riff 1 x4
G|------------------------------||
D|------------------------------||
A|------------9------8------7---||
E|--0--0-0--7---7-6~---6-5~---5-||

Chorus x2
G|--------------------------------------------------------||
D|--------------------------------------------------------||
A|------------------------3---------------------------3---||
E|-5--5--5--5--5--5--5--3---3--5--5--5--5--5--5--5--3---3-||

Bridge x2
G|------------------------------||
D|------------------------------||
A|---------8-8-8-------8-8-10-8-||
E|--0-000--------0-000----------||

Riff 2 x2
G|-------------------------------------||
D|-------------------------------------||
A|-------------------------------------||
E|-0-0000-0-00000000-0-0000-0-0000-3-1-||



Verse 3 x2
G|------------------------------||
D|------------------------------||
A|---------8-8-8-------8-8-10-8-||
E|--0-000--------0-000----------||

Riff 2 x2
G|-------------------------------------||
D|-------------------------------------||
A|-------------------------------------||
E|-0-0000-0-00000000-0-0000-0-0000-3-1-||

Verse 4 x2
G|------------------------------||
D|------------------------------||
A|---------8-8-8-------8-8-10-8-||
E|--0-000--------0-000----------||

Riff 3 x4
G|----------------------------------||
D|----------------------------------||
A|-0-000-7-000-6-000-5-000-5555-3---||
E|--------------------------------3-||

Bridge ending
G|---------------------------------------------------------||
D|---------------------------------------------------------||
A|-0--7--6--5--3-------------0-2-3-5-3-2-0-2-3-------------||
E|---------------3--3-3-5-5--------------------0--3---5-r--||

Chorus x4
G|--------------------------------------------------------||
D|--------------------------------------------------------||
A|------------------------3---------------------------3---||
E|-5--5--5--5--5--5--5--3---3--5--5--5--5--5--5--5--3---3-||

Outro                          x2|
G|-------------------------------|---------||
D|-------------------------------|---------||
A|--7-r----0-7-6-r-----5-r---3---|---3-----||
E|-----------------------------3-|-----3-5-||
                   


  development and support by
dmitry ivanov