rock
 
|tablatures   |lyrics   |discussion forums   |more tabs @ XGuitar.com

Iced Earth tabs

The Pierced Spirit bass tab

Listen for timing, and yet again...tune down lol

F#||--7----------------|--10----------------|--7----------------|
C#||-------------------|--------------------|-------------------|
G#||-------------------|--------------------|-------------------|
D#||-------------------|--------------------|-------------------|



--2--------2--------|--2--------2--------|------------------|
--------------------|--------------------|------------------|
--------------------|--------------------|------------------|
--------------------|--------------------|------------------|



--7----------------|--10----------------|--7----------------|
-------------------|--------------------|-------------------|
-------------------|--------------------|-------------------|
-------------------|--------------------|-------------------|



--2--------2--------|--2--------2--------|--2----------------|
--------------------|--------------------|-------------------|
--------------------|--------------------|-------------------|
--------------------|--------------------|-------------------|



------------------|--5----------------|--4----------------|--2----------------|
------------------|-------------------|-------------------|-------------------|
------------------|-------------------|-------------------|-------------------|
------------------|-------------------|-------------------|-------------------|



--4----------------|--5----------------|--4----------------|--2----------------|
-------------------|-------------------|-------------------|-------------------|
-------------------|-------------------|-------------------|-------------------|
-------------------|-------------------|-------------------|-------------------|



--4----------------|--5----------------|--4----------------|--2----------------|
-------------------|-------------------|-------------------|-------------------|
-------------------|-------------------|-------------------|-------------------|
-------------------|-------------------|-------------------|-------------------|



--4----------------|--5----------------|--4----------------|--2----------------|
-------------------|-------------------|-------------------|-------------------|
-------------------|-------------------|-------------------|-------------------|
-------------------|-------------------|-------------------|-------------------|



--4----------------|------------------|--7----------------|--10----------------|
-------------------|------------------|-------------------|--------------------|
-------------------|------------------|-------------------|--------------------|
-------------------|------------------|-------------------|--------------------|



--7----------------|--2--------2--------|--2--------2--------|
-------------------|--------------------|--------------------|
-------------------|--------------------|--------------------|
-------------------|--------------------|--------------------|



------------------|--7----------------|--10----------------|--7----------------|
------------------|-------------------|--------------------|-------------------|
------------------|-------------------|--------------------|-------------------|
------------------|-------------------|--------------------|-------------------|



--2--------2--------|--2--------2--------|------------------|------------------|
--------------------|--------------------|------------------|------------------|
--------------------|--------------------|------------------|------------------|
--------------------|--------------------|------------------|------------------|



--5----------------|--4----------------|--2----------------|--4----------------|
-------------------|-------------------|-------------------|-------------------|
-------------------|-------------------|-------------------|-------------------|
-------------------|-------------------|-------------------|-------------------|



--5----------------|--4----------------|--2----------------|--4----------------|
-------------------|-------------------|-------------------|-------------------|
-------------------|-------------------|-------------------|-------------------|
-------------------|-------------------|-------------------|-------------------|



------------------|------------------|--2----------------|------------------|
------------------|------------------|-------------------|------------------|
------------------|------------------|-------------------|------------------|
------------------|------------------|-------------------|------------------|



------------------||
------------------||
------------------||
------------------||
  development and support by
dmitry ivanov