rock
 
|tablatures   |lyrics   |discussion forums   |more tabs @ XGuitar.com

Iced Earth tabs

The Phantom Opera Ghost bass tab

ICED EARTH
The Phantom Opera Ghost
from Horror Show by Schaffer
Transcripted by Stefano Lopez (toscanino@inwind.it)

FIND EVERY ICED EARTH SONG AND
THE MOST UPDATED VERSION OF THIS SONG AT:

                          The Frozen Palace
                  http://abysslord.com/icedearth/

PLEASE DO NOT COPY THIS TAB TO ANOTHER SITE 
WITHOUT AUTHORS' PERMISSION.  THANK YOU.

Tune  step down

Intro x2
G|------------------------------------------------------------|
D|-------------------------guitars----------------------------|
A|---------------------------arp------------------------------|
E|------------------------------------------------------------|
 |
G|-----------------------------------|-------3-2--r-----------------------||
D|-2-3-5-0-2--r----------------------|-2-3-5------------------------------||
A|----------------------3-2---2-0-r--|------------------------3-2---2-0-r-||
E|--------------------------3--------|----------------------------3-------||

Pre-verse x2            X2|
G|------------------------|-----------------------||
D|------------------------|-----------------------||
A|------------------------|--3-333--3\---1-111-1\-||
E|-5-555-5--3--6--6--6-5\-|-----------------------||

Verse 1 (the bass follows the bass drum)
G|-----------------------------------------------------------------||
D|-----------------------------------------------------------------||
A|-0-000-0-0--0-0--0-0-000-0-0--0-0--0-0-000-0-0--0-0--0-0-000-0-0-||
E|-----------------------------------------------------------------||

Verse 2 x2
G|---------------------------------|-------------------------------||
D|---------------------------------|-------------------------------||
A|---------------------------------|-------------------------------||
E|-0-000-0-0-0-0-0-1\0-0-0-0-000-0-|-3--3-333-1-1--1\0-0-000-0-0-0-||

Verse 3 (the bass follows the bass drum)
G|-----------------------------------------------------------------||
D|-----------------------------------------------------------------||
A|-0-000-0-0--0-0--0-0-000-0-0--0-0--0-0-000-0-0--0-0--0-0-000-0-0-||
E|-----------------------------------------------------------------||

Verse 4 x2
G|---------------------------------|-------------------------------||
D|---------------------------------|-------------------------------||
A|---------------------------------|-------------------------------||
E|-0-000-0-0-0-0-0-1\0-0-0-0-000-0-|-3--3-333-1-1--1\0-0-000-0-0-0-||

Riff 2
G|-----------------------------------|-----------------------------|
D|-----------------------------------|-----------------------------|
A|-----------------------------------|-----------------------------|
E|-5--5-555-555-555-555-6--3--3--3/5-|-5-555-555-555-555-555-555-3-|
 |
G|-----------------------------------|------------------------------||
D|-----------------------------------|------------------------------||
A|-----------------------------------|------------------------------||
E|-5--5-555-555-555-555-6--3--3--3/5-|-5-555-555-555-555-555-555-55-||

Verse 5 (the bass follows the bass drum)
G|-----------------------------------------------------------------||
D|-----------------------------------------------------------------||
A|-0-000-0-0--0-0--0-0-000-0-0--0-0--0-0-000-0-0--0-0--0-0-000-0-0-||
E|-----------------------------------------------------------------||
Verse 6 x2
G|---------------------------------|-------------------------------||
D|---------------------------------|-------------------------------||
A|---------------------------------|-------------------------------||
E|-0-000-0-0-0-0-0-1\0-0-0-0-000-0-|-3--3-333-1-1--1\0-0-000-0-0-0-||

Verse 7 (the bass follows the bass drum)
G|-----------------------------------------------------------------||
D|-----------------------------------------------------------------||
A|-0-000-0-0--0-0--0-0-000-0-0--0-0--0-0-000-0-0--0-0--0-0-000-0-0-||
E|-----------------------------------------------------------------||

Verse 8 x2
G|---------------------------------|-------------------------------||
D|---------------------------------|-------------------------------||
A|---------------------------------|-------------------------------||
E|-0-000-0-0-0-0-0-1\0-0-0-0-000-0-|-3--3-333-1-1--1\0-0-000-0-0-0-||

Riff 2
G|-----------------------------------|-----------------------------|
D|-----------------------------------|-----------------------------|
A|-----------------------------------|-----------------------------|
E|-5--5-555-555-555-555-6--3--3--3/5-|-5-555-555-555-555-555-555-3-|
 |
G|-----------------------------------|------------------------------||
D|-----------------------------------|------------------------------||
A|-----------------------------------|------------------------------||
E|-5--5-555-555-555-555-6--3--3--3/5-|-5-555-555-555-555-555-555-55-||

Riff 2b
G|-----------------------------------|-----------------------------|
D|-----------------------------------|-----------------------------|
A|-----------------------------------|-----------------------------|
E|-5--5-555-555-555-555-6--3--3--3/5-|-5-555-555-555-555-555-555-3-|
 |
G|-----------------------------------|-----------------------------|
D|-----------------------------------|-----------------------------|
A|-----------------------------------|-----------------------------|
E|-5--5-555-555-555-555-6--3--3--3/5-|-5-555-555-555-555-555-555-5-|
 |
G|----------------------------------|-------------------------------|
D|----------------------------------|-------------------------------|
A|----------------------------------|-------------------------------|
E|-3--3-333-333-333-333-333-333-333-|-333-333-333-333-333-333-333-3-|
 |
G|-----------------------------------|-----------------------------|
D|-----------------------------------|-----------------------------|
A|-----------------------------------|-----------------------------|
E|-5--5-555-555-555-555-6--3--3--3/5-|-5-555-555-555-555-555-555-3-|
 |
G|----------------------------------|-------------------------------|
D|----------------------------------|-------------------------------|
A|----------------------------------|-------------------------------|
E|-3--3-333-333-333-333-333-333-333-|-333-333-333-333-333-333-333-3-|
 |
G|-----------------------------------|-----------------------------|
D|-----------------------------------|-----------------------------|
A|-----------------------------------|-----------------------------|
E|-5--5-555-555-555-555-6--3--3--3/5-|-5-555-555-555-555-555-555-3-|
 |



G|-----------------------------------|-----------------------------|
D|-----------------------------------|-----------------------------|
A|-----------------------------------|-----------------------------|
E|-5--5-555-555-555-555-6--3--3--3/5-|-5-555-555-555-555-555-555-5-|

G|----------------------------------|--------------------------------------||
D|----------------------------------|--------------------------------------||
A|----------------------------------|--------------------------------------||
E|-3--3-333-333-333-333-333-333-333-|-333-333-333-333-333-333-333-5--r-----||

Interlude
G|--------------|------------------|---------------------------------||
D|-guitar arp-&-|-7----------------|---------------7-----------------||
A|----verses----|----8---7---5-/-3-|------------------8--------------||
E|--------------|------------------|-5--r-----------------8---5-/--3-||

Pre-verse 
G|----------------------|----------------5------||
D|--------------7--5-/--|-------------------5---||
A|----------------------|--3--3------3----------||
E|-5--5------5----------|-----------------------||

Verse 11 x4
G|----------------------|-----------------5-----||
D|-------7------7--5-/--|---------------5---5---||
A|----------------------|--3--3------3----------||
E|-5--5------5----------|-----------------------||

Verse 12 
G|-----------------------------|-----------------------------|X3
D|-----------------------------|-----------------------------|
A|-----------------------------|-----------------------------|
E|-5--5-5-5-5-5--5-5-5--5-5-5\-|-1--1-1-1-1-1--1-1-1--1-1-1/-|
 | 
G|-----------------------------|-----------------------------------||
D|-----------------------------|-----------------------------------||
A|-----------------------------|------------------------------3/---||
E|-5--5-5-5-5-5--5-5-5--5-5-5\-|-1--1-1-1-1-1--1-1-1--1-1-1/-------||
	Now!!
Acoustic guitar riff 3

Riff 3 x2
G|----------------------------------|----------------------------------|
D|--------------------------4-6-7-6-|----------------------------------|
A|-4-444-4-444-4-444-4-444----------|-4-444-4-444-4-444-4-444--4-4-222-|
E|----------------------------------|----------------------------------|
 |
G|-------------------------------|----------------------------||
D|-------------------------------|----------------------------||
A|-------------------------------|----------------------------||
E|-5-555-5-555-5-555-5-555-5--5\-|-2-222-2-2--4-444-4-4-4-4-4-||
 
G|-------------------------------------------------------------------||X2
D|-------------------------------------------------------------------||
A|-------------------------------------------------------------------||
E|-5--r---------------------5--3--1--r-------------------------1--3--||

Verse 13 (the bass follows the bass drum)
G|-----------------------------------------------------------------||
D|-----------------------------------------------------------------||
A|-0-000-0-0--0-0--0-0-000-0-0--0-0--0-0-000-0-0--0-0--0-0-000-0-0-||
E|-----------------------------------------------------------------||

Verse 14 x2
G|---------------------------------|-------------------------------||
D|---------------------------------|-------------------------------||
A|---------------------------------|-------------------------------||
E|-0-000-0-0-0-0-0-1\0-0-0-0-000-0-|-3--3-333-1-1--1\0-0-000-0-0-0-||

Verse 15 (the bass follows the bass drum)
G|-----------------------------------------------------------------||
D|-----------------------------------------------------------------||
A|-0-000-0-0--0-0--0-0-000-0-0--0-0--0-0-000-0-0--0-0--0-0-000-0-0-||
E|-----------------------------------------------------------------||

Verse 16 x2
G|---------------------------------|-------------------------------||
D|---------------------------------|-------------------------------||
A|---------------------------------|-------------------------------||
E|-0-000-0-0-0-0-0-1\0-0-0-0-000-0-|-3--3-333-1-1--1\0-0-000-0-0-0-||

Riff 2b
G|-----------------------------------|-----------------------------|
D|-----------------------------------|-----------------------------|
A|-----------------------------------|-----------------------------|
E|-5--5-555-555-555-555-6--3--3--3/5-|-5-555-555-555-555-555-555-3-|
 |
G|-----------------------------------|-----------------------------|
D|-----------------------------------|-----------------------------|
A|-----------------------------------|-----------------------------|
E|-5--5-555-555-555-555-6--3--3--3/5-|-5-555-555-555-555-555-555-5-|
 |
G|----------------------------------|-------------------------------|
D|----------------------------------|-------------------------------|
A|----------------------------------|-------------------------------|
E|-3--3-333-333-333-333-333-333-333-|-333-333-333-333-333-333-333-3-|
 |
G|-----------------------------------|-----------------------------|
D|-----------------------------------|-----------------------------|
A|-----------------------------------|-----------------------------|
E|-5--5-555-555-555-555-6--3--3--3/5-|-5-555-555-555-555-555-555-3-|
 |
G|----------------------------------|-------------------------------|
D|----------------------------------|-------------------------------|
A|----------------------------------|-------------------------------|
E|-3--3-333-333-333-333-333-333-333-|-333-333-333-333-333-333-333-3-|
 |
G|-----------------------------------|-----------------------------|
D|-----------------------------------|-----------------------------|
A|-----------------------------------|-----------------------------|
E|-5--5-555-555-555-555-6--3--3--3/5-|-5-555-555-555-555-555-555-3-|
 |
G|-----------------------------------|-----------------------------|
D|-----------------------------------|-----------------------------|
A|-----------------------------------|-----------------------------|
E|-5--5-555-555-555-555-6--3--3--3/5-|-5-555-555-555-555-555-555-5-|
 |
G|----------------------------------|--------------------------------------||
D|----------------------------------|--------------------------------------||
A|----------------------------------|--------------------------------------||
E|-3--3-333-333-333-333-333-333-333-|-333-333-333-333-333-333-333-5--r-----||

Outro 

  development and support by
dmitry ivanov