rock
 
|tablatures   |lyrics   |discussion forums   |more tabs @ XGuitar.com

Iced Earth tabs

The Path I Choose bass tab

F#||-----------------------------|-----------------------------|
C#||-----------------------------|-----------------------------|
G#||-----------------------------|-----------------------------|
D#||--0--0-0-0--0--0-0-0--0-0-0--|--0--0-0-0--0--0-0-0--0-0-0--|



-----------------------------|-----------------------------|
-----------------------------|-----------------------------|
-----------------------------|-----------------------------|
--0--0-0-0--0--0-0-0--0-0-0--|--0--0-0-0--0--0-0-0--0-0-0--|



-----------------------------|-----------------------------|
--2--2-2-2--2--2-2-2--2-2-2--|--2--2-2-2--2--2-2-2--2-2-2--|
-----------------------------|-----------------------------|
-----------------------------|-----------------------------|



-----------------------------|-----------------------------|
--0--0-0-0--0--0-0-0--0-0-0--|--0--0-0-0--0--0-0-0--0-0-0--|
-----------------------------|-----------------------------|
-----------------------------|-----------------------------|



-----------------------------|-----------------------------|
--3--3-3-3--3--3-3-3--3-3-3--|--3--3-3-3--3--3-3-3--3-3-3--|
-----------------------------|-----------------------------|
-----------------------------|-----------------------------|



-----------------------------|-----------------------------|
--2--2-2-2--2--2-2-2--2-2-2--|--2--2-2-2--2--2-2-2--2-2-2--|
-----------------------------|-----------------------------|
-----------------------------|-----------------------------|



-----------------------------|-----------------------------|
-----------------------------|--0--0-0-0--0--0-0-0--0-0-0--|
--3--3-3-3--3--3-3-3--3-3-3--|-----------------------------|
-----------------------------|-----------------------------|



-----------------------------|-----------------------------|
-----------------------------|-----------------------------|
--2--2-2-2--2--2-2-2--2-2-2--|--2--2-2-2--2--2-2-2--2-2-2--|
-----------------------------|-----------------------------|



-----------------------------|-----------------------------|
-----------------------------|--0--0-0-0--0--0-0-0--0-0-0--|
--3--3-3-3--3--3-3-3--3-3-3--|-----------------------------|
-----------------------------|-----------------------------|



-----------------------------|----------------------------|
-----------------------------|----------------------------|
--2--2-2-2--2--2-2-2--2-2-2--|--2--2-2-2--2--2-2-2--------|
-----------------------------|----------------------12/---|



---------------------|------------------------|-------------------------------|
---------------------|------------------5/-2--|-------------------------------|
---------------------|--5--------5--5-5-------|--7----------------------------|
--0--------------0-0-|------------------------|-----0-0-0--0-0-0--0-0-1-0-1-1-|



------------------------------|---------------------|------------------------|
------------------------------|---------------------|------------------5/-2--|
------------------------------|---------------------|--5--------5--5-5-------|
----0-0-0--0-0-0--0-0-5-4-3-2-|--0--------------0-0-|------------------------|



-------------------------------|------------------------------|
-------------------------------|------------------------------|
--7----------------------------|------------------------------|
-----0-0-0--0-0-0--0-0-1-0-1-1-|----0-0-0--0-0-0--0-0-5-4-3-2-|



-----------------------|----------7-------------|
-----------------------|-------7-------5--4--2--|
---------7----6--5--4--|--5---------------------|
--0--------------------|------------------------|



-------------------------------|------------------------------|
-------------------------------|------------------------------|
--7----------------------------|------------------------------|
-----0-0-0--0-0-0--0-0-1-0-1-1-|----0-0-0--0-0-0--0-0-5-4-3-2-|



-----------------------|----------7--------------|
---------7----5--4--3--|-------7-------5-5-4--2--|
-----------------------|--5----------------------|
--0--------------------|-------------------------|



-------------------------------|------------------------------|
-------------------------------|------------------------------|
--7----------------------------|------------------------------|
-----0-0-0--0-0-0--0-0-1-0-1-1-|----0-0-0--0-0-0--0-0-5-4-3-2-|



--------------------------|--------------------------|------------------------|
--------------4-----------|--------------4-----------|------5----------5------|
-----------4-----------4--|-----------4-----------4--|------------------------|
--2----2-2---------2-2----|--2----2-2---------2-2----|--3-----3----3-----3----|



------------------------|----------------------------------|
------5----------5------|----------------------------------|
------------------------|----------------------------------|
--3-----3----3-----3----|--0-0-0-0-0-0-0-0-0-0-0-0-0-0-0-0-|



----------------------------------|-----------------------------|
----------------------------------|-----------------------------|
----------------------------------|--5------5-5-5-5-5-5-5-5-5-5-|
--0-0-0-0-0-0-0-0-0-0-0-0-0-0-0-0-|-----------------------------|



------------------------------|----------------------------------|
--3-------------3-3----3-3----|----------------------------------|
------------------------------|----------------------------------|
-----1-1-1-1-1------1------1--|--0-0-0-0-0-0-0-0-0-0-0-0-0-0-0-0-|



----------------------------------|-----------------------------|
----------------------------------|-----------------------------|
----------------------------------|--5------5-5-5-5-5-5-5-5-5-5-|
--0-0-0-0-0-0-0-0-0-0-0-0-0-0-0-0-|-----------------------------|



------------------------------|-----------------------------|
--3-------------3-3----3-3----|---------------------------9-|
------------------------------|----------8-----------7-10---|
-----1-1-1-1-1------1------1--|--0-0-0-0-----0-0-0-0--------|



----------------------------|-----------------------------|
-------------------9-7------|---------------------------9-|
----------8---7-10-----10-8-|----------8-----------7-10---|
--0-0-0-0-------------------|--0-0-0-0-----0-0-0-0--------|



----------------------------|-----------------------------|
-------------------9-7------|---------------------------9-|
----------8---7-10-----10-8-|----------8-----------7-10---|
--0-0-0-0-------------------|--0-0-0-0-----0-0-0-0--------|



----------------------------|-----------------------------|
-------------------9-7------|---------------------------9-|
----------8---7-10-----10-8-|----------8-----------7-10---|
--0-0-0-0-------------------|--0-0-0-0-----0-0-0-0--------|



----------------------------|----------------------------|
-------------------9-7------|----------------------------|
----------8---7-10-----10-8-|----------------------------|
--0-0-0-0-------------------|--0-0-0-0-0-0-0-0-0-0-0-0-0-|



--------------------------|----------------------------|
--------------------------|----------------------------|
--------------------------|----------------------------|
--0-0-0-0-0-0-0-0-0-0-0-0-|--1-1-1-1-1-1-1-1-1-1-1-1-1-|



--------------------------|----------------------------|
--------------------------|----------------------------|
--------------------------|----------------------------|
--1-1-1-1-1-1-1-1-1-1-1-1-|--0-0-0-0-0-0-0-0-0-0-0-0-0-|



--------------------------|----------------------------|
--------------------------|----------------------------|
--------------------------|----------------------------|
--0-0-0-0-0-0-0-0-0-0-0-0-|--1-1-1-1-1-1-1-1-1-1-1-1-1-|



--------------------------|-----------------------------|
--------------------------|---------------------------9-|
--------------------------|----------8-----------7-10---|
--1-1-1-1-1-1-1-1-1-1-1-1-|--0-0-0-0-----0-0-0-0--------|



----------------------------|-----------------------------|
-------------------9-7------|---------------------------9-|
----------8---7-10-----10-8-|----------8-----------7-10---|
--0-0-0-0-------------------|--0-0-0-0-----0-0-0-0--------|



----------------------------|-----------------------------|
-------------------9-7------|---------------------------9-|
----------8---7-10-----10-8-|----------8-----------7-10---|
--0-0-0-0-------------------|--0-0-0-0-----0-0-0-0--------|



----------------------------|-----------------------------|
-------------------9-7------|---------------------------9-|
----------8---7-10-----10-8-|----------8-----------7-10---|
--0-0-0-0-------------------|--0-0-0-0-----0-0-0-0--------|



----------------------------|----------------------------|
-------------------9-7------|----------------------------|
----------8---7-10-----10-8-|----------------------------|
--0-0-0-0-------------------|--0-0-0-0-0-0-0-0-0-0-0-0-0-|



--------------------------|----------------------------|
--------------------------|----------------------------|
--------------------------|----------------------------|
--0-0-0-0-0-0-0-0-0-0-0-0-|--1-1-1-1-1-1-1-1-1-1-1-1-1-|



--------------------------|----------------------------|
--------------------------|----------------------------|
--------------------------|----------------------------|
--1-1-1-1-1-1-1-1-1-1-1-1-|--0-0-0-0-0-0-0-0-0-0-0-0-0-|



--------------------------|----------------------------|
--------------------------|----------------------------|
--------------------------|----------------------------|
--0-0-0-0-0-0-0-0-0-0-0-0-|--1-1-1-1-1-1-1-1-1-1-1-1-1-|



--------------------------|--------------------|
--------------------------|--------------------|
--------------------------|--4--------2--------|
--1-1-1-1-1-1-1-1-1-1-1-1-|--------------------|



-----------------------------------|--------------------------------------|
-----------------------------------|------6---7---6-4-0-----4---5---4-2-0-|
--4--------2-2-2-2-2-2-2-2-2-2-2-2-|--4-4---4---4-------2-2---2---2-------|
-----------------------------------|--------------------------------------|



--------------------------------------|--------------------------------------|
------6---7---6-4-0-----4---5---4-2-0-|------6---7---6-4-0-----4---5---4-2-0-|
--4-4---4---4-------2-2---2---2-------|--4-4---4---4-------2-2---2---2-------|
--------------------------------------|--------------------------------------|



--------------------------------------|--------------------------------------|
------6---7---6-4-0-----4---5---4-2-0-|------6---7---6-4-0-----4---5---4-2-0-|
--4-4---4---4-------2-2---2---2-------|--4-4---4---4-------2-2---2---2-------|
--------------------------------------|--------------------------------------|



--------------------------------------|--------------------------------------|
------6---7---6-4-0-----4---5---4-2-0-|------6---7---6-4-0-----4---5---4-2-0-|
--4-4---4---4-------2-2---2---2-------|--4-4---4---4-------2-2---2---2-------|
--------------------------------------|--------------------------------------|



--------------------------------------|------------------------|
------6---7---6-4-0-----4---5---4-2-0-|------------------------|
--4-4---4---4-------2-2---2---2-------|--6--6-6-6--6--6--------|
--------------------------------------|------------------------|



------------------|------------------------|------------------|
------------------|------------------------|------------------|
------------------|--5--5-5-5--5--5--------|------------------|
------------------|------------------------|------------------|



------------------------|------------------|------------------------|
------------------------|------------------|------------------------|
--6--6-6-6--6--6--------|------------------|--5--5-5-5--5--5--------|
------------------------|------------------|------------------------|



------------------|--------------------------|--------------------------|
------------------|--------------------------|--------------------------|
------------------|--6-6-6-6-6----6--6----6--|--6-6-6-6-6----6--8--6----|
------------------|--------------------------|--------------------------|



--------------------------|---------------------------|
--------------------------|---------------------------|
--5-5-5-5-5----5--5----5--|--5-5-5-5-5----6--5--3--5--|
--------------------------|---------------------------|



--------------------------|--------------------------|
--------------------------|--------------------------|
--6-6-6-6-6----6--6----6--|--6-6-6-6-6----6--8--6----|
--------------------------|--------------------------|



--------------------------|---------------------------|
--------------------------|---------------------------|
--5-5-5-5-5----5--5----5--|--5-5-5-5-5----6--5--3--5--|
--------------------------|---------------------------|



-------------------------------|------------------------------|
-------------------------------|------------------------------|
--6-6-6-6-6--6-6-6-6-6--6-6-6--|--6-6-6-6-6--6-6-6--8--6--6-6-|
-------------------------------|------------------------------|



-------------------------------|-----------------------------|
-------------------------------|-----------------------------|
--5-5-5-5-5--5-5-5-5-5--5-5-5--|--5-5-5-5-5--5-5-6--5--3--5--|
-------------------------------|-----------------------------|



-------------------------------|------------------------------|
-------------------------------|------------------------------|
--6-6-6-6-6--6-6-6-6-6--6-6-6--|--6-6-6-6-6--6-6-6--8--6--6-6-|
-------------------------------|------------------------------|



-------------------------------|-----------------------------|
-------------------------------|-----------------------------|
--5-5-5-5-5--5-5-5-5-5--5-5-5--|--5-5-5-5-5--5-5-6--5--3--5--|
-------------------------------|-----------------------------|



-------------------|-------------------|-------------------|
-------------------|-------------------|-------------------|
--6----------------|--6----------------|--6----------------|
-------------------|-------------------|-------------------|



--------------------|------------------------|--------------------|
--------------------|------------------3--2--|--------------------|
--0------1----------|--0------1----1-1-------|--0------1----------|
--------------------|------------------------|--------------------|



------------------------|--------------------|------------------------|
------------------3--2--|--------------------|------------------3--2--|
--0------1----1-1-------|--0------1----------|--0------1----1-1-------|
------------------------|--------------------|------------------------|



--------------------|------------------------|-------------------|
--------------------|------------------3--2--|-------------------|
--0------1----------|--0------1----1-1-------|-------------------|
--------------------|------------------------|--5----------------|



--------------------|-------------------|--------------------|
--------------------|-------------------|--------------------|
--------------------|-------------------|--------------------|
------------8--6----|--5----------------|------------8--6----|



---------------------------------------------|
---------------------------------------------|
---------------------------------------------|
--5--5-5-5-5-5-5-5-5-5-5-5-5-5-5-5-5-5-5-5-6-|



-------------------------------------|
-------------------------------------|
-------------------------------------|
---5--5-5-5-5-5-5-5-5-5-5-5-8--6--6--|



---------------------------------------------|
---------------------------------------------|
---------------------------------------------|
--5--5-5-5-5-5-5-5-5-5-5-5-5-5-5-5-5-5-5-5-6-|



-------------------------------------|
-------------------------------------|
-------------------------------------|
---5--5-5-5-5-5-5-5-5-5-5-5-8--6--6--|



---------------------------------------------|
---------------------------------------------|
---------------------------------------------|
--5--5-5-5-5-5-5-5-5-5-5-5-5-5-5-5-5-5-5-5-6-|



-------------------------------------|
-------------------------------------|
-------------------------------------|
---5--5-5-5-5-5-5-5-5-5-5-5-8--6--6--|



---------------------------------------------|
---------------------------------------------|
---------------------------------------------|
--5--5-5-5-5-5-5-5-5-5-5-5-5-5-5-5-5-5-5-5-6-|



-------------------------------------|------------------------------|
-------------------------------------|------------------------------|
-------------------------------------|--2----------3--2----------0--|
---5--5-5-5-5-5-5-5-5-5-5-5-8--6--6--|-----0-0-0-0-------0-0-0-0----|



---------------------------------|------------------------------|
---------------------------------|------------------------------|
--2----------3--2-2-2-0-2--0-----|--2----------3--2----------0--|
-----0-0-0-0-----------------3-3-|-----0-0-0-0-------0-0-0-0----|



-------------------|---------------------------------------------|
-------------------|---------------------------------------------|
-------------------|---------------------------------------------|
--0----------------|--5--5-5-5-5-5-5-5-5-5-5-5-5-5-5-5-5-5-5-5-6-|



-------------------------------------|
-------------------------------------|
-------------------------------------|
---5--5-5-5-5-5-5-5-5-5-5-5-8--6--6--|



---------------------------------------------|
---------------------------------------------|
---------------------------------------------|
--5--5-5-5-5-5-5-5-5-5-5-5-5-5-5-5-5-5-5-5-6-|



-------------------------------------|
-------------------------------------|
-------------------------------------|
---5--5-5-5-5-5-5-5-5-5-5-5-8--6--6--|



---------------------------------------------|
---------------------------------------------|
---------------------------------------------|
--5--5-5-5-5-5-5-5-5-5-5-5-5-5-5-5-5-5-5-5-6-|



-------------------------------------|
-------------------------------------|
-------------------------------------|
---5--5-5-5-5-5-5-5-5-5-5-5-8--6--6--|



---------------------------------------------|
---------------------------------------------|
---------------------------------------------|
--5--5-5-5-5-5-5-5-5-5-5-5-5-5-5-5-5-5-5-5-6-|



-------------------------------------|------------------------------|
-------------------------------------|------------------------------|
-------------------------------------|--2----------3--2----------0--|
---5--5-5-5-5-5-5-5-5-5-5-5-8--6--6--|-----0-0-0-0-------0-0-0-0----|



---------------------------------|------------------------------|
---------------------------------|------------------------------|
--2----------3--2-2-2-0-2--0-----|--2----------3--2----------0--|
-----0-0-0-0-----------------3-3-|-----0-0-0-0-------0-0-0-0----|



---------------------------------|------------------------------|
---------------------------------|------------------------------|
--2----------3--2-2-2-0-2--0-----|--2----------8--7----------5--|
-----0-0-0-0-----------------3-3-|-----0-0-0-0-------0-0-0-0----|



---------------------------------|------------------------------|
---------------------------------|------------------------------|
--7----------8--2-2-2-0-2--0-----|--2----------8--7----------5--|
-----0-0-0-0-----------------3-3-|-----0-0-0-0-------0-0-0-0----|



---------------------------------|--------------------------|
---------------------------------|--------------4-----------|
--7----------8--2-2-2-0-2--0-----|-----------4-----------4--|
-----0-0-0-0-----------------3-3-|--2----2-2---------2-2----|



--------------------------|------------------------|------------------------|
--------------4-----------|------5----------5------|------5----------5------|
-----------4-----------4--|------------------------|------------------------|
--2----2-2---------2-2----|--3-----3----3-----3----|--3-----3----3-----3----|



----------------------------------|----------------------------------|
----------------------------------|----------------------------------|
----------------------------------|----------------------------------|
--0-0-0-0-0-0-0-0-0-0-0-0-0-0-0-0-|--0-0-0-0-0-0-0-0-0-0-0-0-0-0-0-0-|



-----------------------------|------------------------------|
-----------------------------|--3-------------3-3----3-3----|
--5------5-5-5-5-5-5-5-5-5-5-|------------------------------|
-----------------------------|-----1-1-1-1-1------1------1--|



----------------------------------|----------------------------------|
----------------------------------|----------------------------------|
----------------------------------|----------------------------------|
--0-0-0-0-0-0-0-0-0-0-0-0-0-0-0-0-|--0-0-0-0-0-0-0-0-0-0-0-0-0-0-0-0-|



-----------------------------|------------------------------|
-----------------------------|--3-------------3-3----3-3----|
--5------5-5-5-5-5-5-5-5-5-5-|------------------------------|
-----------------------------|-----1-1-1-1-1------1------1--|



----------------------------------|----------------------------------|
----------------------------------|----------------------------------|
----------------------------------|----------------------------------|
--0-0-0-0-0-0-0-0-0-0-0-0-0-0-0-0-|--0-0-0-0-0-0-0-0-0-0-0-0-0-0-0-0-|



-----------------------------|------------------------------|
-----------------------------|--3-------------3-3----3-3----|
--5------5-5-5-5-5-5-5-5-5-5-|------------------------------|
-----------------------------|-----1-1-1-1-1------1------1--|



----------------------------------|----------------------------------|
----------------------------------|----------------------------------|
----------------------------------|----------------------------------|
--0-0-0-0-0-0-0-0-0-0-0-0-0-0-0-0-|--0-0-0-0-0-0-0-0-0-0-0-0-0-0-0-0-|



-----------------------------|------------------------------|
-----------------------------|--3-------------3-3----3-3----|
--5------5-5-5-5-5-5-5-5-5-5-|------------------------------|
-----------------------------|-----1-1-1-1-1------1------1--|



-------------------------------|-------------------------------|
-------------------------------|-------------------------------|
--2------2------2------0-2-3---|--2------2------2------0-2-3---|
-------------------------------|-------------------------------|



-------------------------------|-------------------------------|
-------------------------------|-------------------------------|
--5------5------5------5-3-5---|--2------2------2------0-2-3---|
-------------------------------|-------------------------------|



-------------------------------|-------------------------------|
-------------------------------|-------------------------------|
--2------2------2------0-2-3---|--2------2------2------0-2-3---|
-------------------------------|-------------------------------|



-------------------------------|-------------------------------|
-------------------------------|-------------------------------|
--5------5------5------5-3-5---|--2------2------2------0-2-3---|
-------------------------------|-------------------------------|



----------------------------------|----------------------------------|
----------------------------------|----------------------------------|
--2---2-2-2---2-2-2---2-2-0-2-3---|--2---2-2-2---2-2-2---2-2-0-2-3---|
----------------------------------|----------------------------------|



----------------------------------|----------------------------------|
----------------------------------|----------------------------------|
--5---5-5-5---5-5-5---5-5-5-3-5---|--2---2-2-2---2-2-2---2-2-0-2-3---|
----------------------------------|----------------------------------|



----------------------------------|----------------------------------|
----------------------------------|----------------------------------|
--2---2-2-2---2-2-2---2-2-0-2-3---|--2---2-2-2---2-2-2---2-2-0-2-3---|
----------------------------------|----------------------------------|



----------------------------------|----------------------------------|
----------------------------------|----------------------------------|
--5---5-5-5---5-5-5---5-5-5-3-5---|--2---2-2-2---2-2-2---2-2-0-2-3---|
----------------------------------|----------------------------------|



------------------||
------------------||
------------------||
------------------||
  development and support by
dmitry ivanov