rock
 
|tablatures   |lyrics   |discussion forums   |more tabs @ XGuitar.com

Iced Earth tabs

The Last Laugh bass tab

ICED EARTH
The Last Laugh
from The Dark Saga by Schaffer, Schawver, Barlow
Transcripted by Stefano Lopez (toscanino@inwind.it)

FIND EVERY ICED EARTH SONG AND
THE MOST UPDATED VERSION OF THIS SONG AT:

                          The Frozen Palace
                  http://abysslord.com/icedearth/

PLEASE DO NOT COPY THIS TAB TO ANOTHER SITE 
WITHOUT AUTHORS' PERMISSION.  THANK YOU.

Tune down  step

Intro x4 (intro) -fade in-
G|--------------------------------------------------------|
D|--------------------------------------------------------|
A|--------------------------------------------------------|
E|-0-0-0--0-0-0--0-0-0--0-0-0--0-0-0--0-0-0--0-0-0--0-0-0-|
 |
G|--------------------------------------------------------||
D|--------------------------------------------------------||
A|--------------------------------------------------------||
E|-3-3-3--3-3-3--3-3-3--3-3-3--1-1-1--1-1-1--1-1-1--1-1-1-||

Verse 1
G|----------------------------------------------------------|X2
D|----------------------------------------------------------|
A|----------------------------------------------------------|
E|-0-0000000000000000000-3-2-0000-2-1-0000-1-0-000000000000-|
 |
G|------------------------------------------------------------------||
D|------------------------------------------------------------------||
A|------------------------------------------------------------------||
E|-0-0-0-0-0-0-0-0-0-0-0-0-0-0000-3-2-0000-2-1-0000-1-0-0-0-0-0-0-0-||

Riff 1 x2
G|--------------------------------------------------------|
D|--------------------------------------------------------|
A|--------------------------------------------------------|
E|-0-0-0--0-0-0--0-0-0--0-0-0--0-0-0--0-0-0--0-0-0--0-0-0-|
 |
G|--------------------------------------------------------||
D|--------------------------------------------------------||
A|--------------------------------------------------------||
E|-3-3-3--3-3-3--3-3-3--3-3-3--1-1-1--1-1-1--1-1-1--1-1-1-||

Verse 2
G|----------------------------------------------------------|X2
D|----------------------------------------------------------|
A|----------------------------------------------------------|
E|-0-0000000000000000000-3-2-0000-2-1-0000-1-0-000000000000-|
 |
G|------------------------------------------------------------------||X2
D|------------------------------------------------------------------||
A|------------------------------------------------------------------||
E|-0-0-0-0-0-0-0-0-0-0-0-0-0-0000-3-2-0000-2-1-0000-1-0-0-0-0-0-0-0-||

Chorus x4
G|----------------------------------|----------------------------------||
D|----------------------------------|----------------------------------||
A|----------------------------------|----------------------------------||
E|-00000000000000000000000000000000-|-33333333333333331111111111111111-||

G|--------||
D|--------||
A|--------||
E|--0-r---||


Bridge                                   |X2                        |
G|---------------------------------------|--------------------------||
D|---------------------------------------|--------------------------||
A|---------------------------------------|--------------------------||
E|-00-1--0-r--00-1--0-r--00-1--0-r--00-1-|-0-00-0--00-0--00-0--00-1-||

Solo x4
G|-----------------------------------------||
D|-----------------------------------------||
A|-----------------------------------------||
E|-0--000--000--00-1111-0--000--000--00--1-||

Riff 1 x2
G|--------------------------------------------------------|
D|--------------------------------------------------------|
A|--------------------------------------------------------|
E|-0-0-0--0-0-0--0-0-0--0-0-0--0-0-0--0-0-0--0-0-0--0-0-0-|
 |
G|--------------------------------------------------------||
D|--------------------------------------------------------||
A|--------------------------------------------------------||
E|-3-3-3--3-3-3--3-3-3--3-3-3--1-1-1--1-1-1--1-1-1--1-1-1-||

Verse 3
G|----------------------------------------------------------|X2
D|----------------------------------------------------------|
A|----------------------------------------------------------|
E|-0-0000000000000000000-3-2-0000-2-1-0000-1-0-000000000000-|
 |
G|------------------------------------------------------------------||X2
D|------------------------------------------------------------------||
A|------------------------------------------------------------------||
E|-0-0-0-0-0-0-0-0-0-0-0-0-0-0000-3-2-0000-2-1-0000-1-0-0-0-0-0-0-0-||

Chorus x4
G|----------------------------------|----------------------------------||
D|----------------------------------|----------------------------------||
A|----------------------------------|----------------------------------||
E|-00000000000000000000000000000000-|-33333333333333331111111111111111-||

Outro
G|------------------------------------------------------------------|
D|------------------------------------------------------------------|
A|------------------------------------------------------------------|
E|-0-0-0-0-0-0-0-0-0-0-0-0-0-0000-3-2-0000-2-1-0000-1-0-0-0-0-0-0-0-|
 |
G|-------------------------------------------------------||
D|-------------------------------------------------------||
A|-------------------------------------------------------||
E|-0-0-0-0-0-0-0-0-0-0-0-0-0-0000-3-2-0000-2-1-0000-1-0--||
  development and support by
dmitry ivanov