rock
 
|tablatures   |lyrics   |discussion forums   |more tabs @ XGuitar.com

Iced Earth tabs

The Hunter bass tab

ICED EARTH
The Hunter
from The Dark Saga by Schaffer
Transcripted by Stefano Lopez (toscanino@inwind.it)

FIND EVERY ICED EARTH SONG AND
THE MOST UPDATED VERSION OF THIS SONG AT:

                          The Frozen Palace
                  http://abysslord.com/icedearth/
 
PLEASE DO NOT COPY THIS TAB TO ANOTHER SITE 
WITHOUT AUTHORS' PERMISSION.  THANK YOU.

Tune down  step

Intro
G|----------|------------|------------|-------------|------------|------------|
D|----------|------------|------------|-------------|------------|------------|
A|-7---7-r--|---7---7-r--|------------|---7---7-r---|------------|------------|
E|----------|------------|-----0-r----|-------------|---3-r------|-----1-r----|
 |
G|----------|------------|------------|------------||
D|----------|------------|------------|------------||
A|-7---7-r--|---7---7-r--|------------|------------||
E|----------|------------|---3-r------|-----1-r----||

Intro b x2
G|-----------------------------|------------------------------|
D|-----------------------------|------------------------------|
A|---------7--7------5-----5---|----------7--7------3-----3---|
E|-0--0-0--------0-0---0-0-----|--0--0-0--------0-0---0-0-----|
 |
G|-----------------------------|------------------------------------||
D|-----------------------------|------------------------------------||
A|---------7--7------5-----5---|--3-------3-------3-------3-----5---||
E|-0--0-0--------0-0---0-0-----|-----0-0-----0-0----0-0-0----0------||

Riff 1 x2
G|--------------------------------|---------------------------------|
D|--------------------------------|---------------------------------|
A|---------7--7--5-5--5--5-5--5---|----------7--7--2-2--2--2-2--2---|
E|-0--0-0-------------------------|--0--0-0-------------------------|
 |
G|--------------------------------|------------------------------------||End of 
D|--------------------------------|------------------------------------||riff 1
A|---------7--7--5-5--5--5-5--5---|--3--3-3--3--3-3--3-3-3-3-3--3/-5---||
E|-0--0-0-------------------------|------------------------------------||

Verse 1 X5
G|-------------------------|--------------------------||
D|-------------------------|--------------------------||
A|-7-----7-------7-----8---|--7-----7-------7-----7---||
E|---0-0---0-0-0---0-0-----|----0-0---0-0-0---0-0-----||

Riff 1 x2
G|--------------------------------|---------------------------------|
D|--------------------------------|---------------------------------|
A|---------7--7--5-5--5--5-5--5---|----------7--7--2-2--2--2-2--2---|
E|-0--0-0-------------------------|--0--0-0-------------------------|
 |
G|--------------------------------|------------------------------------||End of 
D|--------------------------------|------------------------------------||riff 1
A|---------7--7--5-5--5--5-5--5---|--3--3-3--3--3-3--3-3-3-3-3--3/-5---||
E|-0--0-0-------------------------|------------------------------------||

Verse 2 X5
G|-------------------------|--------------------------||
D|-------------------------|--------------------------||
A|-7-----7-------7-----8---|--7-----7-------7-----7---||
E|---0-0---0-0-0---0-0-----|----0-0---0-0-0---0-0-----||


Chorus x4
G|--------------------------------|---------------------------------|
D|--------------------------------|---------------------------------|
A|---------7--7--5-5--5--5-5--5---|----------7--7--2-2--2--2-2--2---|
E|-0--0-0-------------------------|--0--0-0-------------------------|
 |
G|--------------------------------|------------------------------------||End of 
D|--------------------------------|------------------------------------||chorus
A|---------7--7--5-5--5--5-5--5---|--3--3-3--3--3-3--3-3-3-3-3--3/-5---||
E|-0--0-0-------------------------|------------------------------------||

Bridge
G|---------------------|-----------|X2
D|---------------------|-----------|
A|---------------------|-----------|
E|-0-------------------|--0-00-1-1-|
 |
G|---------------------|-----------||X2
D|---------------------|-----------||
A|---------------------|-----------||End of bridge
E|-0-00-0-00-0-00-0-00-|--0-00-1-1-||

Solo
G|----------------------|----------------------|
D|----------------------|----------------------|
A|----------------------|----------------------|
E|-3--3-3-3-3-3--3-3-3--|--1--1-1-1-1-1--1-1-1-|
 |
G|---------------------|-----------|X2
D|---------------------|-----------|
A|---------------------|-----------|
E|-0-00-0-00-0-00-0-00-|--0-00-1-1-|
 |
G|----------------------|----------------------||End of solo
D|----------------------|----------------------||
A|----------------------|----------------------||
E|-3--3-3-3-3-3--3-3-3--|--1--1-1-1-1-1--1-1-1-||

Verse 3 x5
G|-------------------------|------------------------||
D|-------------------------|------------------------||
A|-7-----7-------7-----8---|--7-----7-------7-----7-||
E|---0-0---0-0-0---0-0-----|----0-0---0-0-0---0-0---||

Chorus x4
G|--------------------------------|---------------------------------|
D|--------------------------------|---------------------------------|
A|---------7--7--5-5--5--5-5--5---|----------7--7--2-2--2--2-2--2---|
E|-0--0-0-------------------------|--0--0-0-------------------------|
 |
G|--------------------------------|------------------------------------||End of 
D|--------------------------------|------------------------------------||chorus
A|---------7--7--5-5--5--5-5--5---|--3--3-3--3--3-3--3-3-3-3-3--3/-5---||
E|-0--0-0-------------------------|------------------------------------||

Outro
G|-------------------------|--------------------------|--------------------------------||
D|-------------------------|--------------------------|--------------------------------||
A|-7-----7-------7-----8---|--7-----7-------7-----7---|--7-----7-------7-----8---------||
E|---0-0---0-0-0---0-0-----|----0-0---0-0-0---0-0-----|----0-0---0-0-0---0-0-----0--0--||
  development and support by
dmitry ivanov