rock
 
|tablatures   |lyrics   |discussion forums   |more tabs @ XGuitar.com

Iced Earth tabs

The Funeral bass tab

F#||-------------|-------------|-------------|-------------|---------------|
C#||-------------|-------------|-------------|-------------|---------------|
G#||-------------|-------------|-------------|-------------|---------------|
D#||--0----------|--0----------|--0----------|--0----------|--3------------|



---------------|---------------|---------------|-------------|-------------|
---------------|---------------|---------------|-------------|-------------|
---------------|---------------|---------------|-------------|-------------|
--3------------|--3------------|--3------------|--0----------|--0----------|



-------------|-------------|---------------|---------------|---------------|
-------------|-------------|---------------|---------------|---------------|
-------------|-------------|---------------|---------------|---------------|
--0----------|--0----------|--3------------|--3------------|--3------------|



---------------|-------------|-------------|-------------|-------------|
---------------|-------------|-------------|-------------|-------------|
---------------|-------------|-------------|-------------|-------------|
--3------------|--0----------|--0----------|--0----------|--0----------|



-------------------|---------------|-----------------|---------------|
-------------------|---------------|-----------------|---------------|
-------------------|---------------|-----------------|---------------|
--0----------------|--5------------|--5------5---8---|--0------------|



-----------------|---------------|-----------------|---------------|
-----------------|---------------|-----------------|---------------|
-----------------|---------------|-----------------|---------------|
--0------0---3---|--5------------|--5------5---8---|--0------------|



-----------------|--------------------------|----------------------|
-----------------|--------------------------|----------------------|
-----------------|--------------------------|----------------------|
--0------0---3---|--5---5-5-5-5-5---5-5-5-5-|--5---5-5-5-5-5---8---|



--------------------------|----------------------|--------------------------|
--------------------------|----------------------|--------------------------|
--------------------------|----------------------|--------------------------|
--0---0-0-0-0-0---0-0-0-0-|--0---0-0-0-0-0---3---|--5---5-5-5-5-5---5-5-5-5-|



----------------------|--------------------------|----------------------|
----------------------|--------------------------|----------------------|
----------------------|--------------------------|----------------------|
--5---5-5-5-5-5---8---|--0---0-0-0-0-0---0-0-0-0-|--0---0-0-0-0-0---3---|



-------------------|------------------|
-------------------|------------------|
-------------------|------------------|
--0----------------|------------------|



--------------------------------------------|
--------------------------------------------|
--------------------------------------3---2-|
--0-0-0-0-0-0-0-0-0-0-3-0-0-0-0-0-0-1---1---|



--------------------------------------------|
--------------------------------------------|
--------------------------------------3---2-|
--0-0-0-0-0-0-0-0-0-0-3-0-0-0-0-0-0-1---1---|



--------------------------------------------|
--------------------------------------------|
--------------------------------------3---2-|
--0-0-0-0-0-0-0-0-0-0-3-0-0-0-0-0-0-1---1---|



--------------------------------------------|
--------------------------------------------|
--------------------------------------3---2-|
--0-0-0-0-0-0-0-0-0-0-3-0-0-0-0-0-0-1---1---|



--------------------------------------------|
--------------------------------------------|
--------------------------------------3---2-|
--0-0-0-0-0-0-0-0-0-0-3-0-0-0-0-0-0-1---1---|



--------------------------------------------|
--------------------------------------------|
--------------------------------------3---2-|
--0-0-0-0-0-0-0-0-0-0-3-0-0-0-0-0-0-1---1---|



--------------------------------------------|
--------------------------------------------|
--------------------------------------3---2-|
--0-0-0-0-0-0-0-0-0-0-3-0-0-0-0-0-0-1---1---|



--------------------------------------------|
--------------------------------------------|
--------------------------------------3---2-|
--0-0-0-0-0-0-0-0-0-0-3-0-0-0-0-0-0-1---1---|



--------------------------------------------|
--------------------------------------------|
--------------------------------------3---2-|
--0-0-0-0-0-0-0-0-0-0-3-0-0-0-0-0-0-1---1---|



--------------------------------------------|
--------------------------------------------|
--------------------------------------3---2-|
--0-0-0-0-0-0-0-0-0-0-3-0-0-0-0-0-0-1---1---|



--------------------------------------------|
--------------------------------------------|
--------------------------------------3---2-|
--0-0-0-0-0-0-0-0-0-0-3-0-0-0-0-0-0-1---1---|



--------------------------------------------|
--------------------------------------------|
--------------------------------------3---2-|
--0-0-0-0-0-0-0-0-0-0-3-0-0-0-0-0-0-1---1---|



--------------------------------------------|
--------------------------------------------|
--------------------------------------3---2-|
--0-0-0-0-0-0-0-0-0-0-3-0-0-0-0-0-0-1---1---|



--------------------------------------------|
--------------------------------------------|
--------------------------------------3---2-|
--0-0-0-0-0-0-0-0-0-0-3-0-0-0-0-0-0-1---1---|



--------------------------------------------|
--------------------------------------------|
--------------------------------------3---2-|
--0-0-0-0-0-0-0-0-0-0-3-0-0-0-0-0-0-1---1---|



--------------------------------------------|
--------------------------------------------|
--------------------------------------3---2-|
--0-0-0-0-0-0-0-0-0-0-3-0-0-0-0-0-0-1---1---|



--------------------------------------------|
--------------------------------------------|
--------------------------------------3---2-|
--0-0-0-0-0-0-0-0-0-0-3-0-0-0-0-0-0-1---1---|



--------------------------------------------|
--------------------------------------------|
--------------------------------------3---2-|
--0-0-0-0-0-0-0-0-0-0-3-0-0-0-0-0-0-1---1---|



--------------------------------------------|
--------------------------------------------|
--------------------------------------3---2-|
--0-0-0-0-0-0-0-0-0-0-3-0-0-0-0-0-0-1---1---|



--------------------------------------------|
--------------------------------------------|
--------------------------------------3---2-|
--0-0-0-0-0-0-0-0-0-0-3-0-0-0-0-0-0-1---1---|



--------------------------------------------|
--------------------------------------------|
--------------------------------------3---2-|
--0-0-0-0-0-0-0-0-0-0-3-0-0-0-0-0-0-1---1---|



--------------------------------------------|
--------------------------------------------|
--------------------------------------3---2-|
--0-0-0-0-0-0-0-0-0-0-3-0-0-0-0-0-0-1---1---|



--------------------------------------------|
--------------------------------------------|
--------------------------------------3---2-|
--0-0-0-0-0-0-0-0-0-0-3-0-0-0-0-0-0-1---1---|



--------------------------------------------|-------------------|
--------------------------------------------|-------------------|
--------------------------------------3---2-|-------------------|
--0-0-0-0-0-0-0-0-0-0-3-0-0-0-0-0-0-1---1---|--0----------------|



------------------|-----------------------|----------9-11-9---11--9--7-|
------------------|----------9------7-----|----------------------------|
------------------|-------------10-----5--|----------------------------|
------------------|-----------------------|--0-------------------------|



--9-12-----------------------|-------------------------------|
-------12-9-----9------7-----|-----9-8-----------9-10--------|
-------------------10-----5--|--7-------10--8-7--------10--8-|
-----------------------------|-------------------------------|



-------------------------------|-------------------------------|
-----9-8-----------9-10--------|-----9-8-----------9-10--------|
--7-------10--8-7--------10--8-|--7-------10--8-7--------10--8-|
-------------------------------|-------------------------------|



-------------------------------|-------------------------------|
-----9-8-----------9-10--------|-----9-8-----------9-10--------|
--7-------10--8-7--------10--8-|--7-------10--8-7--------10--8-|
-------------------------------|-------------------------------|



-------------------------------|-------------------------------|
-----9-8-----------9-10--------|-----9-8-----------9-10--------|
--7-------10--8-7--------10--8-|--7-------10--8-7--------10--8-|
-------------------------------|-------------------------------|



-------------------------------|------------------------|
-----9-8-----------9-10--------|------------------------|
--7-------10--8-7--------10--8-|------------------------|
-------------------------------|--0------0-0-1------1-1-|



-----------------------------|---------------9-------------|
-----------------------------|-----------------10-9-7-3--3-|
-----------------------------|-----------------------------|
--0------0-0-3-3-3-3-5-5-5-5-|--0------0-0-1---------------|



-----------------------------|---------------------------|
-----------------------------|---------------------------|
-----------------------3-0---|-------------0-------------|
--0------0-0-3-3-3-3-1-----1-|--0------2-3----3-2-0-2-3/-|



------------------------------------|---------------------------|
------------------------------------|---------------------------|
--7--7-------------------5-5-5-5-6/-|-------------0-------------|
-------6---6-6-6-7-7-7-7------------|--0------2-3----3-2-0-2-3/-|



------------------------------------|--------------------|------------------|
------------------------------------|--------------------|------------------|
--7--7-------------------5-5-5-5-6/-|--------------------|------------------|
-------6---6-6-6-7-7-7-7------------|--3-5---------------|------------------|



--------------------|--------------------|---------------------------|
--7--------5--------|-----------2--------|---------------------------|
--------------------|--------------------|---------------------------|
--5--------3--------|--3--------0--------|--5-------5-3---3-3-3-0--0-|



-----------------------------|-----------------------------|
-----------------------------|------------------------5----|
-----------------------------|----------------------5----5-|
--3---3-3-3-3--3-0-----0-1-3-|--5---5-5---5-3---3-3--------|



-------------------------------|------------------------|
---------------------2/3-2---0-|------------------------|
---------------------------3---|------------------------|
--3---3-3-3-3--3-0-------------|--5------5-5-3------3-0-|



-------------------------|------------------------|----------------------------|
-------------------------|------------------------|----------------------------|
--3------3-0-5----0-5--5-|------------------------|--3------3-0-5/---12-----12-|
-------------------------|--5------5-5-3------3-0-|---------------------10-----|



------------------------|---------5----------------|------------------------|
------------------------|-------5------------------|------------------------|
------------------------|--3---------0-5----0-5--5-|------------------------|
--5------5-5-3------3-0-|--------------------------|--5------5-5-3------3-0-|



---------------------------|---------------------------------------|
---------------------------|---------------------------------------|
--3-3-3-3-3-3-3-3-5--------|---------------------------------------|
---------------------------|--5--5-5-5-5-5-5-5-3---3-3-3-3-3-3-3-0-|



---------------------------------------|---------------------------------------|
---------------------------------------|---------------------------------------|
--3--3-3-3-3-3-3-0-5---5-5-5-5-5-5-5-0-|---------------------------------------|
---------------------------------------|--5--5-5-5-5-5-5-5-3---3-3-3-3-3-3-3-0-|



---------------------------------------|---------------------------------------|
---------------------------------------|---------------------------------------|
--3--3-3-3-3-3-3-0-5---5-5-5-5-5-5-5-0-|---------------------------------------|
---------------------------------------|--5--5-5-5-5-5-5-5-3---3-3-3-3-3-3-3-0-|



---------------------------------------|---------------------------------------|
---------------------------------------|---------------------------------------|
--3--3-3-3-3-3-3-0-5---5-5-5-5-5-5-5-0-|---------------------------------------|
---------------------------------------|--5--5-5-5-5-5-5-5-3---3-3-3-3-3-3-3-0-|



---------------------------------------|--------------------------------------|
---------------------------------------|--5h7---------------5h7---------------|
--3--3-3-3-3-3-3-0-5---5-5-5-5-5-5-5-0-|------0-0-0-0-0-0-0-----0-0-0-0-0-0-0-|
---------------------------------------|--------------------------------------|



--------------------------------------|------------------------|
--5h7---------------5h7---------------|------------------------|
------0-0-0-0-0-0-0-----0-0-0-0-0-0-0-|------------------------|
--------------------------------------|--5-----5-6-5-3------3--|



-----------------------|------------------------|-----------------------|
-----------------------|------------------------|-----------------------|
-----------------------|------------------------|-----------------------|
--6-----6-8-6-5--------|--5-----5-6-5-3------3--|--6-----6-8-6-5--------|



----------------------------------------|
----------------------------------------|
--5--5-5-5-5-5-5-7-5-3--3-3-3-3-3-3-3-0-|
----------------------------------------|



----------------------------------------|
--3--3-3-3-3-3-3-5-3-2--2-2-2-2-2-2-2---|
--------------------------------------3-|
----------------------------------------|



----------------------------------------|
----------------------------------------|
--5--5-5-5-5-5-5-7-5-3--3-3-3-3-3-3-3-0-|
----------------------------------------|



----------------------------------------|
--3--3-3-3-3-3-3-5-3-2--2-2-2-2-2-2-2---|
--------------------------------------3-|
----------------------------------------|



------------------------------------------------|
------------------------------------------------|
------------------------------------------------|
--5-5-5-5-5-5-5-5-5-6-5-3-3-3-3-3-3-3-3-3-3-3-3-|



----------------------------------------------|
----------------------------------------------|
----------------------------------------------|
--5-6-6-6-6-6-6-6-6-8-6-5-5-5-5-5-5-5-5-5-5-3-|



------------------------------------------------|
------------------------------------------------|
------------------------------------------------|
--5-5-5-5-5-5-5-5-5-6-5-3-3-3-3-3-3-3-3-3-3-3-3-|



----------------------------------------------|
----------------------------------------------|
----------------------------------------------|
--5-6-6-6-6-6-6-6-6-8-6-5-5-5-5-5-5-5-5-5-5-3-|



----------------------------------------|
----------------------------------------|
--5--5-5-5-5-5-5-7-5-3--3-3-3-3-3-3-3-0-|
----------------------------------------|



----------------------------------------|
--3--3-3-3-3-3-3-5-3-2--2-2-2-2-2-2-2---|
--------------------------------------3-|
----------------------------------------|



----------------------------------------|
----------------------------------------|
--5--5-5-5-5-5-5-7-5-3--3-3-3-3-3-3-3-0-|
----------------------------------------|



----------------------------------------|
--3--3-3-3-3-3-3-5-3-2--2-2-2-2-2-2-2---|
--------------------------------------3-|
----------------------------------------|



------------------------------------------|
------------------------------------------|
------------------------------------------|
--5-5-5-5-6-5-5-5-5-5-5-5-6-5-5-5-5-5-5-5-|



------------------------------------------|
------------------------------------------|
------------------------------------------|
--4-4-4-4-5-4-4-4-4-4-4-4-5-4-4-4-4-4-4-4-|



------------------------------------------|
------------------------------------------|
------------------------------------------|
--5-5-5-5-6-5-5-5-5-5-5-5-6-5-5-5-5-5-5-5-|



------------------------------------------|
------------------------------------------|
------------------------------------------|
--4-4-4-4-5-4-4-4-4-4-4-4-5-4-4-4-4-4-4-4-|



------------------------------------------|
------------------------------------------|
------------------------------------------|
--5-5-5-5-6-5-5-5-5-5-5-5-6-5-5-5-5-5-5-5-|



------------------------------------------|
------------------------------------------|
------------------------------------------|
--4-4-4-4-5-4-4-4-4-4-4-4-5-4-4-4-4-4-4-4-|



------------------------------------------|
------------------------------------------|
------------------------------------------|
--5-5-5-5-6-5-5-5-5-5-5-5-6-5-5-5-5-5-5-5-|



-----------------------------------------|
-----------------------------------------|
--------------------------------------4/-|
--4-4-4-4-5-4-4-4-4-4-4-4-5-4-4-4-4-4----|



--------------------------------------------|
--------------------------------------------|
--------------------------------------3---2-|
--0-0-0-0-0-0-0-0-0-0-3-0-0-0-0-0-0-1---1---|



--------------------------------------------|
--------------------------------------------|
--------------------------------------3---2-|
--0-0-0-0-0-0-0-0-0-0-3-0-0-0-0-0-0-1---1---|



--------------------------------------------|
--------------------------------------------|
--------------------------------------3---2-|
--0-0-0-0-0-0-0-0-0-0-3-0-0-0-0-0-0-1---1---|



--------------------------------------------|------------------------|
--------------------------------------------|------------------------|
--------------------------------------3---2-|------------------------|
--0-0-0-0-0-0-0-0-0-0-3-0-0-0-0-0-0-1---1---|--0-----1--1-0-----3--1-|



------------------------|-------------------|------||
------------------------|-------------------|------||
------------------------|-------------------|------||
--0-----1--1-0-----3--1-|--0----------------|------||
  development and support by
dmitry ivanov