rock
 
|tablatures   |lyrics   |discussion forums   |more tabs @ XGuitar.com

Iced Earth tabs

Slave to the Dark bass tab

ICED EARTH
Slave To The Dark
from The Dark Saga by Schaffer
Transcripted by Stefano Lopez (toscanino@inwind.it)

FIND EVERY ICED EARTH SONG AND
THE MOST UPDATED VERSION OF THIS SONG AT:

                          The Frozen Palace
                  http://abysslord.com/icedearth/

PLEASE DO NOT COPY THIS TAB TO ANOTHER SITE 
WITHOUT AUTHORS' PERMISSION.  THANK YOU.

Tune down  step

The Suffering - part 2

Intro
G|------------------|------------------|--------------------------|
D|------------------|------------------|--------------------------|
A|------------------|----------------3-|-5-r---------3-r----------|
E|-5-r------------3-|-5-r--------------|--------------------------|
 |
G|----------------------||
D|----------------------||
A|----------------------||
E|-3--5-r-------------3-||

Verse 1 x2
G|------------------|------------------|--------------------------|
D|------------------|------------------|--------------------------|
A|------------------|----------------3-|-5-r---------3-r----------|
E|-5-r------------3-|-5-r--------------|--------------------------|
 |
G|----------------------||
D|----------------------||
A|----------------------||
E|-3--5-r-------------3-||

Pre-verse        X2|
G|-----------------|------------------|-----------------||
D|-----------------|------------------|-----------------||
A|-0--0--0--0--1-1-|----------3--3--1-|-0--0--0--0--1-1-||
E|-----------------|-3--3--3----------|-----------------||

Verse 2 x2                   
G|-----------------------------|-----------------------------|
D|-----------------------------|-----------------------------|
A|-0-0-0-0-0-0-0-0-0-0-0-0-1-1-|-0-0-0-0-0-0-0-0-0-0-0-0-1-1-|
E|-----------------------------|-----------------------------|
 | 
G|-----------------------------|---------------------------------||
D|-----------------------------|---------------------------------||
A|-0-0-0-0-0-0-0-0-0-0-0-0-1-1-|-----------------3-3-3-3-3-3-1-1-||
E|-----------------------------|-3-3-3-3-3-3-3-3-----------------||

Lead 1
G|-----------------------------|-----------------------------|
D|-----------------------------|-----------------------------|
A|-----------------------------|-----------------------------|
E|-5-5-5-5-5-5-5-5-5-5-5-5-5-5-|-5-5-5-5-5-5-5-5-5-5-5-5-5-5-|
 |
G|-----------------------------|-----------------------------||
D|-----------------------------|-----------------------------||
A|-----------------------------|-----------------------------||
E|-3-3-3-3-3-3-3-3-3-3-3-3-3-3-|-5-5-5-5-5-5-5-5-5-5-5-5-5-5-||





Verse 3 x2                   
G|-----------------------------|-----------------------------|
D|-----------------------------|-----------------------------|
A|-0-0-0-0-0-0-0-0-0-0-0-0-1-1-|-0-0-0-0-0-0-0-0-0-0-0-0-1-1-|
E|-----------------------------|-----------------------------|
 | 
G|-----------------------------|---------------------------------||
D|-----------------------------|---------------------------------||
A|-0-0-0-0-0-0-0-0-0-0-0-0-1-1-|-----------------3-3-3-3-3-3-1-1-||
E|-----------------------------|-3-3-3-3-3-3-3-3-----------------||
 
Chorus x2
G|-----------------------------|-----------------------------|
D|-----------------------------|-----------------------------|
A|-----------------------------|-----------------------------|
E|-5-5-5-5-5-5-5-5-5-5-5-5-5-5-|-5-5-5-5-5-5-5-5-5-5-5-5-5-5-|
 |
G|-----------------------------|-----------------------------||
D|-----------------------------|-----------------------------||
A|-----------------------------|-----------------------------||
E|-3-3-3-3-3-3-3-3-3-3-3-3-3-3-|-5-5-5-5-5-5-5-5-5-5-5-5-5-5-||

Solo 1          X3|                          X3|
Gb|---------------|------------|---------------|------------||X2
Db|---------------|------------|---------------|------------||
Ab|---------------|------------|---------------|-3-3-3-3--1-||
Eb|-3/5-5-5-5-5-5-|--3/5-5-6-6-|-1/3-3-3-3-3-3-|------------||
 
Lead 1 x2
G|-----------------------------|-----------------------------|
D|-----------------------------|-----------------------------|
A|-----------------------------|-----------------------------|
E|-5-5-5-5-5-5-5-5-5-5-5-5-5-5-|-3-3-3-3-3-3-3-3-3-3-3-3-3-3-|
 |
G|-----------------------------|--------------------------||
D|-----------------------------|--------------------------||
A|-----------------------------|---------------3-3-3-3--1-||
E|-1-1-1-1-1-1-1-1-1-1-1-1-1-1-|-5-5-5-5-5-5-5------------||

Solo 2          X3|                          X3|
Gb|---------------|------------|---------------|------------||X2
Db|---------------|------------|---------------|------------||
Ab|---------------|------------|---------------|-3-3-3-3--1-||
Eb|-3/5-5-5-5-5-5-|--3/5-5-6-6-|-1/3-3-3-3-3-3-|------------||

Verse 4 x2                   
G|-----------------------------|-----------------------------|
D|-----------------------------|-----------------------------|
A|-0-0-0-0-0-0-0-0-0-0-0-0-1-1-|-0-0-0-0-0-0-0-0-0-0-0-0-1-1-|
E|-----------------------------|-----------------------------|
 | 
G|-----------------------------|---------------------------------||
D|-----------------------------|---------------------------------||
A|-0-0-0-0-0-0-0-0-0-0-0-0-1-1-|-----------------3-3-3-3-3-3-1-1-||
E|-----------------------------|-3-3-3-3-3-3-3-3-----------------||
 
Chorus x2
G|-----------------------------|-----------------------------|
D|-----------------------------|-----------------------------|
A|-----------------------------|-----------------------------|
E|-5-5-5-5-5-5-5-5-5-5-5-5-5-5-|-5-5-5-5-5-5-5-5-5-5-5-5-5-5-|
 |

G|-----------------------------|-----------------------------||
D|-----------------------------|-----------------------------||
A|-----------------------------|-----------------------------||
E|-3-3-3-3-3-3-3-3-3-3-3-3-3-3-|-5-5-5-5-5-5-5-5-5-5-5-5-5-5-||

Outro x2
G|-----------------------------|-----------------------------|
D|-----------------------------|-----------------------------|
A|-----------------------------|-----------------------------|
E|-5-5-5-5-5-5-5-5-5-5-5-5-5-5-|-3-3-3-3-3-3-3-3-3-3-3-3-3-3-|
 |
G|-----------------------------|--------------------------|
D|-----------------------------|--------------------------|
A|-----------------------------|---------------3-3-3-3--1-|
E|-1-1-1-1-1-1-1-1-1-1-1-1-1-1-|-5-5-5-5-5-5-5------------|
 |
G|-----------------------------|-----------------------------|
D|-----------------------------|-----------------------------|
A|-----------------------------|-----------------------------|
E|-5-5-5-5-5-5-5-5-5-5-5-5-5-5-|-3-3-3-3-3-3-3-3-3-3-3-3-3-3-|
 |
G|-----------------------------|----------------------------------||
D|-----------------------------|----------------------------------||
A|-----------------------------|---------------3-3-3-3--1---------||
E|-1-1-1-1-1-1-1-1-1-1-1-1-1-1-|-5-5-5-5-5-5-5--------------0--r--||
To 'Question of Heaven'




  development and support by
dmitry ivanov