rock
 
|tablatures   |lyrics   |discussion forums   |more tabs @ XGuitar.com

Iced Earth tabs

Rites of Passage guitar tab

Demons & Wizards:  Rites Of Passage

transcribed by:  Russ Elton (webmaster@abysslord.com)

FIND EVERY ICED EARTH SONG AND
THE MOST UPDATED VERSION OF THIS SONG AT:

                          The Frozen Palace
                  http://abysslord.com/icedearth/

Date last modified:  8/18/00
  
PLEASE DO NOT COPY THIS TAB TO ANOTHER SITE 
WITHOUT AUTHORS' PERMISSION.  THANK YOU.

Tuning: Eb

eb|-------------------------------------------|
Bb|-------------------------------------------|
Gb|-5--4----5--2----5----7-5--4----5--4-----2-|
Db|-5--4----5--2----5----7-5--4----5--4--5--2-|
Ab|-3--2----3--0----3----5-3--2----3--2--5--0-|
Eb|--------------------------------------3----|

eb|-------------------------------------------|
Bb|-------------------------------------------|
Gb|-5--4----5--2----5----7-5--4----5--4-------|
Db|-5--4----5--2----5----7-5--4----5--4--5--2-|
Ab|-3--2----3--0----3----5-3--2----3--2--5--2-|
Eb|--------------------------------------3--0-|


Notation:

10^        = bend a quarter step.
10b11      = bend a half step.
10b12      = bend a full step.
10b12r10   = bend and release.
[10]12     = pre-bend.
[10]12r10  = pre-bend and release.
{14}       = pick the 14th fret while holding the most 
             previous bend.
<17>       = touch the string above the 17th fret while 
             previous note(s) is(are) still ringing.

10b13*     = tremolo bar bend, from the 10th fret to the 13th fret.
7d4*       = tremolo bar dive, from the 7th fret to the 4th fret. 
12~*       = tremolo bar vibrato.

x   =  mute with fret-hand
*   =  palm mute
X\\ =  pick slide
h   =  hammer-on
p   =  pull-off
~   =  vibrato
t   =  finger tap
/   =  slide up
\   =  slide down
h.  =  natural harmonics
a   =  artificial harmonics
(9) =  ghost note
tm  =  trem picking
tr  =  trill
  development and support by
dmitry ivanov