rock
 
|tablatures   |lyrics   |discussion forums   |more tabs @ XGuitar.com

Iced Earth tabs

Pure Evil bass tab

Iced Earth:  Pure Evil

from Night of the Stormrider & Days of Purgatoy by Schaffer
Transcripted by Stefano Lopez (toscanino@inwind.it)

FIND EVERY ICED EARTH SONG AND
THE MOST UPDATED VERSION OF THIS SONG AT:

                          The Frozen Palace
                  http://abysslord.com/icedearth/
 
PLEASE DO NOT COPY THIS TAB TO ANOTHER SITE 
WITHOUT AUTHORS' PERMISSION.  THANK YOU.

Tune down  step

Intro 
G|------------------------------------|X2
D|------------------------------------|
A|---------------------5-r------------|
E|-2-r------5-r-------------------2-r-|
 |
G|----------------------------------------------------------||X2
D|----------------------------------------------------------||
A|-0--0-0--0-0--0-0--0-0-----2--2-2--2-2--2-2--2-2--2--3----||
E|------------------------3-------------------------------3-||

Pre-verse
G|----------------------------------------------------------||X2
D|----------------------------------------------------------||
A|----------------------------------------------------------||
E|-5----------------------3-4-5-6--5----------5555-5-5555-5-||

Verse 1 x4 (Riff 1)
G|----------------------------------------------------------||
D|----------------------------------------------------------||
A|----------------------------------------------------------||
E|-5-5-555-555-555-555-5--3-4-5-6--5-5-555-5--5555-5-5555-5-||

Chorus x2
G|------------------------------|
D|------------------------------|
A|-3-3333333333-2-2222222--1--1-|
E|------------------------------|
 |
G|----------------------------------------------------------|
D|----------------------------------------------------------|
A|----------------------------------------------------------|
E|-5-5-555-555-555-555-5--3-4-5-6--5-5-555-5--5555-5-5555-5-|
 |
G|------------------------------||
D|------------------------------||
A|-3-3333333333-2-2222222--1--1-||
E|------------------------------||

Riff 1 x2
G|----------------------------------------------------------||
D|----------------------------------------------------------||
A|----------------------------------------------------------||
E|-5-5-555-555-555-555-5--3-4-5-6--5-5-555-5--5555-5-5555-5-||

Verse 2 x4 
G|----------------------------------------------------------||
D|----------------------------------------------------------||
A|----------------------------------------------------------||
E|-5-5-555-555-555-555-5--3-4-5-6--5-5-555-5--5555-5-5555-5-||

Chorus x2
G|------------------------------|
D|------------------------------|
A|-3-3333333333-2-2222222--1--1-|
E|------------------------------|
 |
G|----------------------------------------------------------|
D|----------------------------------------------------------|
A|----------------------------------------------------------|
E|-5-5-555-555-555-555-5--3-4-5-6--5-5-555-5--5555-5-5555-5-|
 |
G|------------------------------||
D|------------------------------||
A|-3-3333333333-2-2222222--1--1-||
E|------------------------------||

Riff 1 x2
G|----------------------------------------------------------||
D|----------------------------------------------------------||
A|----------------------------------------------------------||
E|-5-5-555-555-555-555-5--3-4-5-6--5-5-555-5--5555-5-5555-5-||

Riff 2 x4
G|-----------------------------------------------------------||
D|-------------3h5---------------------------3h5-------------||
A|-0-0-0-000-0-----0-0-0-0-0-0-0-0-0-0-000-0-----0-0-0-0-0-0-||
E|-----------------------------------------------------------||

Riff 3 x4
G|---------------------------------||
D|---------------------------------||
A|--------7--5--8------------------||
E|-5-555-----------5-555-5-77-5-4~-||

Interlude     
G|-10--9--14--10--9-8-9---9--9-10-9---9-|X3
D|--------------------------------------|
A|--------------------------------------|
E|--------------------------------------|
 |
G|-10--9--14--10--|-----------------------------------|
D|----------------|-----------------------------------|
A|----------------|-7-6-7------------7-8-7------------|
E|----------------|-------000-0-0000-------000-0-0000-|
 |
G|----------------------------------------------------------------------||X4
D|-------------------7--------------------------------------------------||
A|--8-------7-----------------8-------7-6-7------------7-8-7------------||
E|----0-0-0---000-0----0-0-0----0-0-0-------000-0-0000-------000-0-0000-||

Solo 1 x4 
G|----------------------------------------------------------------||
D|----------------------------------------------------------------||
A|----------------------------------------------------------------||
E|-1-00-1--0-0-000-0-000-0-000-00--2-00-2--3-3-333-3-333-3-333-33-||

                                                   X4|
G|---------------------------------------------------|------------||
D|---------------------------------------------------|------------||
A|-8-7-8-7--------------------8-7-8------------------|-5--8--5--8-||
E|----------0--0-0--0-0--0-0--------3--3-3--3-3--3-3-|------------||

Solo 2 x3
G|-------------------------------------------------------------|
D|-------------------------------------------------------------|
A|-7-7-7-7-7-7-7-7-7-7-7-7-7-7-7-7-7-7-7-7-7-7-7--8-7-8-10-8-7-|
E|-------------------------------------------------------------|
 |                                               |1.2           |3.
G|-----------------------------------------------|--------------|------------||
D|-----------------------------------------------|--------------|------------||
A|-5-5-5-5-5-5-5-5-5-5-5-5-5-5-5-5---------------|--------------|-5--8--5--8-||
E|---------------------------------6-6-6-6-6-6-6-|-5-5-5-5-5--5-|------------||

Solo ending x2
G|--------------------5-555-4-444-8-888-9-999-4-444-5-555-5-555-4-444-8/-||
D|--2-222-5-555-4-444----------------------------------------------------||
A|-----------------------------------------------------------------------||
E|-----------------------------------------------------------------------||

Pre-verse
G|----------------------------------------------------------||X2
D|----------------------------------------------------------||
A|----------------------------------------------------------||
E|-5----------------------3-4-5-6--5----------5555-5-5555-5-||

Verse 3 x4 
G|----------------------------------------------------------||
D|----------------------------------------------------------||
A|----------------------------------------------------------||
E|-5-5-555-555-555-555-5--3-4-5-6--5-5-555-5--5555-5-5555-5-||

Chorus x2
G|------------------------------|
D|------------------------------|
A|-3-3333333333-2-2222222--1--1-|
E|------------------------------|
 |
G|----------------------------------------------------------|
D|----------------------------------------------------------|
A|----------------------------------------------------------|
E|-5-5-555-555-555-555-5--3-4-5-6--5-5-555-5--5555-5-5555-5-|
 |
G|------------------------------||
D|------------------------------||
A|-3-3333333333-2-2222222--1--1-||
E|------------------------------||

Riff 1 x2
G|----------------------------------------------------------||
D|----------------------------------------------------------||
A|----------------------------------------------------------||
E|-5-5-555-555-555-555-5--3-4-5-6--5-5-555-5--5555-5-5555-5-||

Outro
G|------------------------------------|X2
D|------------------------------------|
A|---------------------5-r------------|
E|-2-r------5-r-------------------2-r-|
 |
G|--------------------------------------------------------|X2
D|--------------------------------------------------------|
A|-0--0-0--0-0--0-0--0-0-----2--2-2--2-2--2-2--2-2---3----|
E|------------------------3-----------------------------3-|
 |
G|-----------------------------------------------------------------------|X7
D|-------------------7---------------------------------------------------|
A|--8-------7-----------------8-------7-6-7------------7--8-7------------|
E|----0-0-0---000-0----0-0-0----0-0-0-------000-0-0000--------000-0-0000-|
 |
G|------------------------------------------||
D|-------------------7----------------------||
A|--8-------7-----------------8-------7-6-7-||
E|----0-0-0---000-0----0-0-0----0-0-0-----0-||
  development and support by
dmitry ivanov