rock
 
|tablatures   |lyrics   |discussion forums   |more tabs @ XGuitar.com

Iced Earth tabs

Prophecy bass tab

ICED EARTH 
Prophecy
from Something Wicked this Way Comes by Schaffer
Transcripted by Stefano Lopez (toscanino@inwind.it)

FIND EVERY ICED EARTH SONG AND
THE MOST UPDATED VERSION OF THIS SONG AT:

                          The Frozen Palace
                  http://abysslord.com/icedearth/
  
PLEASE DO NOT COPY THIS TAB TO ANOTHER SITE 
WITHOUT AUTHORS' PERMISSION.  THANK YOU.

Tune down  step

Something Wicked trilogy -first chapter

Intro                                   x2|                                  x2|                                                          
G|----7--10-----9---7-----7-----7-----|----7--10-----9---7-----7-----7-----||
D|--7---7---7-7---7---7-7---7-7---7---|--8---8---8-8---8---8-8---8-8---8---||
A|------------------------------------|------------------------------------||
E|------------------------------------|------------------------------------||

Verse 1                                 x2|                                  x2|                                                          
G|----7--10-----9---7-----7-----7-----|----7--10-----9---7-----7-----7-----||X2
D|--7---7---7-7---7---7-7---7-7---7---|--8---8---8-8---8---8-8---8-8---8---||
A|------------------------------------|------------------------------------||
E|------------------------------------|------------------------------------||

Pre-Chorus x2
G|--------------------------------------------------------------------||
D|--------------------------------------------------------------------||
A|---5--5--5--5-r-----5--5--5--5-r-----5--5--5--5-r-----5--5--5--5-r -||
E|--------------------------------------------------------------------||

Chorus                             x2|                               
G|-----------------------------------|-------------||X2
D|--7-----5-----8-----5-----7--7--7--|-------------||
A|----0-0---0-0---0-0---0-0---0--0---|-------------||
E|-----------------------------------|---1-r---3-r-||

Verse 2                             x2|                                  x2|                                                          
G|----7--10-----9---7-----7-----7-----|----7--10-----9---7-----7-----7-----||X2
D|--7---7---7-7---7---7-7---7-7---7---|--8---8---8-8---8---8-8---8-8---8---||
A|------------------------------------|------------------------------------||
E|------------------------------------|------------------------------------||

Pre-Chorus x2
G|--------------------------------------------------------------------||
D|--------------------------------------------------------------------||
A|---5--5--5--5-r-----5--5--5--5-r-----5--5--5--5-r-----5--5--5--5-r -||
E|--------------------------------------------------------------------||

Chorus                             x2|                               
G|-----------------------------------|-------------||X2
D|--7-----5-----8-----5-----7--7--7--|-------------||
A|----0-0---0-0---0-0---0-0---0--0---|-------------||
E|-----------------------------------|---1-r---3-r-||

Interlude                        x2|                                 x2|
G|---------------------------------|-----------------------------------||
D|------------7---5---7-----5-7-8--|------------5---3---5-----6-5-3----||
A|--5-555-5-5---5---5---5-5--------|--3-333-3-3---3---3---3-3----------||
E|---------------------------------|-----------------------------------||

Riff 1                           x2|                                 x2|
G|---------------------------------|-----------------------------------||X2
D|---------------------------------|-----------------------------------||
A|--5-555-5-5-55-55-55-55-55-55-5--|--3-333-3-3-33-33-33-33-33-33-3----||
E|---------------------------------|-----------------------------------||


Verse 3 x2               x2| 
G|------------------------|----------------------------------------------------------||
D|------------------------|-------------5/-3-----------------------------------------||
A|-5-555-5-5-5-5---6--3---|--8--888--8--------6--666--6---8\6---5-555-5-5-5-5---6--3-||
E|------------------------|----------------------------------------------------------||

Riff 1                           x2|                                 x2|
G|---------------------------------|-----------------------------------||X2
D|---------------------------------|-----------------------------------||
A|--5-555-5-5-55-55-55-55-55-55-5--|--3-333-3-3-33-33-33-33-33-33-3----||
E|---------------------------------|-----------------------------------||

Solo x2               x2| 
G|----------------------|----------------------------------------------------------||
D|----------------------|-------------5/-3-----------------------------------------||
A|-5-555-5-5-5-5---6--3-|--8--888--8--------6--666--6---8\6---5-555-5-5-5-5---6--3-||
E|----------------------|----------------------------------------------------------||

Riff 1                           x2|                                 x2|
G|---------------------------------|-----------------------------------||X2
D|---------------------------------|-----------------------------------||
A|--5-555-5-5-55-55-55-55-55-55-5--|--3-333-3-3-33-33-33-33-33-33-3----||
E|---------------------------------|-----------------------------------||

Chorus 2 x2
G|---------------------------------|X2
D|---------------------------------|
A|--5-555-5-5-5-5-5-5-5-5-5-6--3---|
E|---------------------------------|
 |                                                                        
G|---------------------------------------------------------------------|----||
D|----------------5/-3-------------------------------------------------|----||
A|---8-888--8-8-8------6-666-6-6-6--8\6-5-555-5-5-5-5-5-5-5-5-5--6--3--|--5-||
E|---------------------------------------------------------------------|----||
                                                                       |last time

Intro                                   x2|                                  x2|                                                          
G|----7--10-----9---7-----7-----7-----|----7--10-----9---7-----7-----7-----||X2
D|--7---7---7-7---7---7-7---7-7---7---|--8---8---8-8---8---8-8---8-8---8---||
A|------------------------------------|------------------------------------||
E|------------------------------------|------------------------------------||

Pre-Chorus x2 
G|--------------------------------------------------------------------||
D|--------------------------------------------------------------------||
A|---5--5--5--5-r-----5--5--5--5-r-----5--5--5--5-r-----5--5--5--5-r--||
E|--------------------------------------------------------------------||

Endind 
G|---------||
D|---------||
A|--5--r---||
E|---------||




  development and support by
dmitry ivanov