rock
 
|tablatures   |lyrics   |discussion forums   |more tabs @ XGuitar.com

Iced Earth tabs

Poor Man's Crusade bass tab

Demons&Wizards
Poor  Man' s Crusade
from Demons&Wizards by  Kursh, Schaffer
Transcripted by Stefano Lopez (bloch@ciaoweb.it)

FIND EVERY ICED EARTH SONG AND
THE MOST UPDATED VERSION OF THIS SONG AT:

                          The Frozen Palace
                  http://abysslord.com/icedearth/
  
PLEASE DO NOT COPY THIS TAB TO ANOTHER SITE 
WITHOUT AUTHORS' PERMISSION.  THANK YOU.

Tune  step down

Intro x2
G|--------------------------------------||
D|--------4-----------------------------||
A|-----------5--4-----------------------||
E|--3-2-------------3-2---0-2-5--3~-2~--||

Riff 1 x2
G|----------------------------------------------------------------||
D|----------------------------------------------------------------||
A|----------------------------------------------------------------||
E|-3\2-222-222-222-222-222-222-2-223\2-222-222-222-22-0-2-5-3~-2~-||

Verse 1 x2
G|---------------------------------------------------------------|X2
D|---------------------------------------------------------------|
A|---------------------------------------------------------------|
E|-3\2-222-222-222-222-222-222-2-223\2-222-222-222-222-222-0-2-0-|
 |
G|---------------------||End of verse 1
D|---------------------||
A|-000000-3333333-2222-||
E|---------------------||

Pre-chorus x2
G|-----------------------------------------------------||
D|------------------4----------------------------------||
A|----------------------5-4----------------------------||
E|--3-2-2-2-2--2-2-------------3-2-2-2-2--2-2--0--2--3-||

Chorus x2
G|-------------------------------------------------------||
D|-------------------------------------------------------||
A|-------------------------------------------------------||
E|-5--5-5-5--5-5-3--3-3-5--3--2-2-2-2--2-2-2-3--2-2-3--2-||

Riff 1 x2
G|----------------------------------------------------------------||
D|----------------------------------------------------------------||
A|----------------------------------------------------------------||
E|-3\2-222-222-222-222-222-222-2-223\2-222-222-222-22-0-2-5-3~-2~-||

Verse 2 x2
G|---------------------------------------------------------------|X2
D|---------------------------------------------------------------|
A|---------------------------------------------------------------|
E|-3\2-222-222-222-222-222-222-2-223\2-222-222-222-222-222-0-2-0-|
 |
G|---------------------||End of verse 2
D|---------------------||
A|-000000-3333333-2222-||
E|---------------------||



Pre-chorus x2
G|-----------------------------------------------------||
D|------------------4----------------------------------||
A|----------------------5-4----------------------------||
E|--3-2-2-2-2--2-2-------------3-2-2-2-2--2-2--0--2--3-||

Chorus x2
G|-------------------------------------------------------||
D|-------------------------------------------------------||
A|-------------------------------------------------------||
E|-5--5-5-5--5-5-3--3-3-5--3--2-2-2-2--2-2-2-3--2-2-3--2-||

G|--------------------------------------||X2
D|--------4-----------------------------||
A|-----------5--4-----------------------||
E|--3-2-------------3-2---0-2-5--3~-2~--||

Verse 3 x2
G|---------------------------------------------------------------|X2
D|---------------------------------------------------------------|
A|---------------------------------------------------------------|
E|-3\2-222-222-222-222-222-222-2-223\2-222-222-222-222-222-0-2-0-|
 |
G|---------------------||End of verse 3
D|---------------------||
A|-000000-3333333-2222-||
E|---------------------||

Pre-chorus x2
G|-----------------------------------------------------||
D|------------------4----------------------------------||
A|----------------------5-4----------------------------||
E|--3-2-2-2-2--2-2-------------3-2-2-2-2--2-2--0--2--3-||

Chorus x4
G|-------------------------------------------------------||
D|-------------------------------------------------------||
A|-------------------------------------------------------||
E|-5--5-5-5--5-5-3--3-3-5--3--2-2-2-2--2-2-2-3--2-2-3--2-||

Outro x2                             |2nd time
G|-----------------------------------|-----||
D|-------4---------------------------|-----||
A|----------5--4---------------------|-----||
E|-3-2-----------3-2---0-2-5--3~-2~--|-3-2-||
  development and support by
dmitry ivanov