rock
 
|tablatures   |lyrics   |discussion forums   |more tabs @ XGuitar.com

Iced Earth tabs

Nightmares bass tab

#----------------------------------PLEASE NOTE--------------------------------#
#This file is the author's own work and represents their interpretation of the#
#song. You may only use this file for private study, scholarship, or research.#
#-----------------------------------------------------------------------------#
#-- File created with Instab - http://www.pconline.com/~smcarey/instab.html --#
#-----------------------------------------------------------------------------#

FIND EVERY ICED EARTH SONG AND
THE MOST UPDATED VERSION OF THIS SONG AT:

                          The Frozen Palace
                  http://abysslord.com/icedearth/

PLEASE DO NOT COPY THIS TAB TO ANOTHER SITE 
WITHOUT AUTHORS' PERMISSION.  THANK YOU.

Author/Artist: Iced Earth
Title: Nightmares
Album: Enter the Realm demo
Transcribed by: iloveironmaiden
Email: adhill@cinci.rr.com

cool tune

-------------------------------|----------------------------------------------
-------------------------------|----------------------------------------------
-------------------------------|----------------------------------------------
-------------------------------|----------------------------------------------
---4-----4---4-----5-----5---5-|----------------------------------------------
-2-----2---2-----3-----3---3---|----------------------------------------------
   Eb tuning      x4  intro then                                              

--------------------------------------------------|---------------------------
--------------------------------------------------|---------------------------
--------------------------------------------------|---------------------------
--------------------------------------------------|---------------------------
-3--------3---2-------3---2---------3---2----5-3-2|---------------------------
------------5-----------5-------------5-----------|---------------------------
                                                     x2                       

--------------------------------------------------|---------------------------
--------------------------------------------------|---------------------------
--------------------------------------------------|---------------------------
--------------------------------------------------|---------------------------
-3--2-2-2-3---2--2-2-2-3---2--2-2-2-3---2----5-3-2|---------------------------
------------5------------5------------5-----------|---------------------------
   then this filled riff  x4 then the solo comes in,keep repeating til verse  

------------------------------------------------------------|-----------------
------------------------------------------------------------|-----------------
------------------------------------------------------------|-----------------
------------------------------------------------------------|-----------------
-2-2-2-2-2-2-2--2-2-2-2-2-2-2--3-3-3-3-3-3-3----------------|-----------------
----------------------------------------------5-5-5-5-5-5-5-|-----------------
      verse                                                                   

------------------------------------------------------------------------------
------------------------------------------------------------------------------
------------------------------------------------------------------------------
------------------------------------------------------------------------------
-3--33333333--2--0--0-000-0-2-0-3---------------------------------------------
----------------------------------1--11111111--3--0-000-0-0-0-----------------
    bridge thingy                                                             

--------------------------------------------------|---------------------------
--------------------------------------------------|---------------------------
--------------------------------------------------|---------------------------
--------------------------------------------------|---------------------------
-3--2-2-2-3---2--2-2-2-3---2--2-2-2-3---2----5---2|---------------------------
------------5------------5------------5--------3--|---------------------------
  chorus             the bridge riff is played under 2nd solo                 

  development and support by
dmitry ivanov