rock
 
|tablatures   |lyrics   |discussion forums   |more tabs @ XGuitar.com

Iced Earth tabs

Mystical End bass tab

ICED EARTH
Mystical End
from Night of the Stormrider by Schaffer
Transcripted by Stefano Lopez (toscanino@inwind.it)
Tune  step down

FIND EVERY ICED EARTH SONG AND
THE MOST UPDATED VERSION OF THIS SONG AT:

                          The Frozen Palace
                  http://abysslord.com/icedearth/

PLEASE DO NOT COPY THIS TAB TO ANOTHER SITE 
WITHOUT AUTHORS' PERMISSION.  THANK YOU.

Intro x2
G|------------------------|X2
D|-7-7-8-7-10-8-7--7-8----|
A|---------------------10-|
E|------------------------|
 |
G|----------------------------------------------------||
D|-7-7-8-7-10-8-7--7-8-7-10-8-7--7-8-7-10-8-7--7-8----||
A|-------------------------------------------------10-||
E|----------------------------------------------------||

Verse 1 x4 (riff 1)
G|-------------------------------------------------------------------|
D|-------------------------------------------------------------------|
A|-5--5-5-5-5-5-5--7-7-7-7-8-8-8-8--5-5-5-5-5-5-5-5--7-7-7-7-8-8-8-8-|
E|-------------------------------------------------------------------|
 |
G|--------------------------------------------------||
D|--------------------------------------------------||
A|-3-3-3-3-3-3-3-3--3/5-5-5-5--5\3-3-3-3--3/5-5-5-5-||
E|--------------------------------------------------||

Verse 2 x2
G|--------------------------------------------------------------------|
D|--------------------------------------------------5-4-5-7-5-4-5p4p0-|
A|-5-555-5-555-5-555-5-555-5-55-5-55-3-333-3-333-3--------------------|
E|--------------------------------------------------------------------|
 |
G|----------------------------------------------------------------||
D|----------------------------------------------------------------||
A|-5-555-5-555-5-555-5-555-5-55-5-55-3-333-3-333-3--6-6-666-6-666-||
E|----------------------------------------------------------------||

Riff 1 x2
G|-------------------------------------------------------------------|
D|-------------------------------------------------------------------|
A|-5--5-5-5-5-5-5--7-7-7-7-8-8-8-8--5-5-5-5-5-5-5-5--7-7-7-7-8-8-8-8-|
E|-------------------------------------------------------------------|
 |
G|--------------------------------------------------||
D|--------------------------------------------------||
A|-3-3-3-3-3-3-3-3--3/5-5-5-5--5\3-3-3-3--3/5-5-5-5-||
E|--------------------------------------------------||

Pre-verse x2
G|----------------------------||
D|----------------------------||
A|-5--5----------3--3---------||
E|----------------------------||

Verse 3 x8 (riff 2)             |Last time
G|----------------------------|-----||
D|----------------------------|-----||
A|-5--5-55--8-7--3--3-33--6-5-|--5--||
E|----------------------------|-----||
 

Pre-solo (riff 3)  
G|---------------------------------------------------------------------||
D|---------------------------------------------------------------------||
A|---------------------------guitar  riff3-----------------------------||
E|---------------------------------------------------------------------||
 |
G|---------------------------------|-----------------------------------||
D|---------------------------------|-----------------------------------||
A|-5-r---------------------------3-|-5-----------------6-5-6-8-6-5-5---||
E|---------------------------------|---------------------------------6-||

Solo x4
G|---------------------------------|-----------------------------------||
D|---------------------------------|-----------------------------------||
A|-5-555-5-555-5-555-5-555-6-666---|-5-555-5-555-5-55--6-5-6-8-6-5-5---||
E|-------------------------------8-|---------------------------------6-||
 
Solo ending x2
G|----------------------------------------------------------------------------|
D|----------------------------------------------------------------------------|
A|-5-555555555555-6-6--5-555555555555-6-6--5-555555555555-6-6--5-555555555555-|
E|----------------------------------------------------------------------------|
 |
G|---------------||
D|---------------||
A|-888888-666666-||
E|---------------||

Interlude x7
G|---------------------------|---------------------------||
D|---------------------------|---------------------------||
A|-5---5---5---5----3-3-3-3--|-5---5---5---5----6-6-6-6--||
E|---0---0---0---0-----------|---0---0---0---0-----------||

Interlude ending
G|-----------------------------------------------------||
D|-----------------------------------------------------||
A|-5--------------------6-6-6--5-----------7-777-6-6-6-||
E|-----------------------------------------------------||

Verse 4 x2
G|--------------------------------------------------------------------|
D|--------------------------------------------------5-4-5-7-5-4-5p4p0-|
A|-5-555-5-555-5-555-5-555-5-55-5-55-3-333-3-333-3--------------------|
E|--------------------------------------------------------------------|
 |
G|----------------------------------------------------------------||
D|----------------------------------------------------------------||
A|-5-555-5-555-5-555-5-555-5-55-5-55-3-333-3-333-3--6-6-666-6-666-||
E|----------------------------------------------------------------||

Outro x2
G|----------------------------------------------------------------------|
D|---5-4-5-7-5-4---5-4-5-7-5-4---5-4-5-7-5-4---5-4-5-7-5-4---5-4-5-7-5-4-|
A|-5-------------5-------------3-------------3-------------1-------------|
E|-----------------------------------------------------------------------|
 |
G|----------------------------------------------||
D|---4-5-7-9-7-5-4----5-4-5-7-5-4---5-4-5-7-5-4-||
A|-3----------------5-------------5-------------||
E|----------------------------------------------||



Ending                      X2|
G|----------------------------|--------------------------------||
D|----------------------------|--------------------------------||
A|-5--5-55--8-7--3--3-33--6-5-|--5-555555555555555-r--------5\-||
E|----------------------------|--------------------------------||

  development and support by
dmitry ivanov