rock
 
|tablatures   |lyrics   |discussion forums   |more tabs @ XGuitar.com

Iced Earth tabs

My Own Savior bass tab

ICED EARTH
My Own Savior
from Something Wicked this Way Comes by Schaffer, Barlow, Morris
Transcripted by Stefano Lopez (toscanino@inwind.it)

FIND EVERY ICED EARTH SONG AND
THE MOST UPDATED VERSION OF THIS SONG AT:

                          The Frozen Palace
                  http://abysslord.com/icedearth/

PLEASE DO NOT COPY THIS TAB TO ANOTHER SITE 
WITHOUT AUTHORS' PERMISSION.  THANK YOU.

Tune down  step

Intro 
G|--------------------------------|---------------------||
D|--------------------------------|---------------------||
A|--------------------------------|---------------------||
E|-0--------0--------0---------3--|-0--------0--------0-||

Riff 1    x3|                     x2|
G|----------|------------|----------|----------------||X2
D|----------|------------|----------|----------------||
A|----------|------------|----------|-----3---5-3----||End of Riff 1 
E|-0h222222-|-0h222222-3-|-0h222222-|-2-2---2-----3~-||

Verse 1 
G|-----------------------------------------------------|X3
D|-----------------------------------------------------|
A|-----------------------------------------------------|
E|-0-0-0-0-0-0-3-3-3-3/5\3-2-2-2-2-2-2-2-2-2-2-2-2-2-2-|
 |
G|-------------------------||
D|-------------------------||
A|-------------------------||
E|-0-0-0-0-0-0-3-3-3-3/5\3-||

Riff 1    x3|                     x2|
G|----------|------------|----------|----------------||X2
D|----------|------------|----------|----------------||
A|----------|------------|----------|-----3---5-3----||End of Riff 1 
E|-0h222222-|-0h222222-3-|-0h222222-|-2-2---2-----3~-||

Verse 2 x4
G|-----------------------------------------------------|X3
D|-----------------------------------------------------|
A|-----------------------------------------------------|
E|-0-0-0-0-0-0-3-3-3-3/5\3-2-2-2-2-2-2-2-2-2-2-2-2-2-2-|
 |
G|-------------------------||
D|-------------------------||
A|-------------------------||
E|-0-0-0-0-0-0-3-3-3-3/5\3-||

Pre-chorus     
G|-------------------------------------|
D|-------------------------------------|
A|-------------------------------------|
E|---3---2-----3---2-----3---2---0---2-|
 |
G|-------------------------------------||
D|-/-5---2-----------------------------||
A|-------------5---4-----2---1---------||
E|-------------------------------0---2-||

Chorus x2
G|---------------------------------------------------||
D|---------------------------------------------------||
A|---------------------------------------------------||
E|-3--2--2-2222--3--2--2-2222--3--2--0--2--2--2-2222-||
Solo 
G|---------------------------------------------------|X2
D|---------------------------------------------------|
A|-5--4--4-4444--5--4--4-4444--5--4--2--4--4--4-4444-|
E|---------------------------------------------------|
 |                                                   |
G|---------------------------------------------------||End of solo
D|---------------------------------------------------||
A|---------------------------------------------------||
E|-3--2--2-2222--3--2--2-2222--3--2--0--2--2--2-2222-||X2

G|--------------------------------|---------------------||
D|--------------------------------|---------------------||
A|--------------------------------|---------------------||
E|-0--------0--------0---------3--|-0--------0--------0-||

Riff 1    x3|                     x2|
G|----------|------------|----------|----------------||X2
D|----------|------------|----------|----------------||
A|----------|------------|----------|-----3---5-3----||End of Riff 1 
E|-0h222222-|-0h222222-3-|-0h222222-|-2-2---2-----3~-||

Verse 3 x4
G|-----------------------------------------------------||
D|-----------------------------------------------------||
A|-----------------------------------------------------||
E|-0-0-0-0-0-0-3-3-3-3/5\3-2-2-2-2-2-2-2-2-2-2-2-2-2-2-||

Pre-chorus     
G|-------------------------------------|
D|-------------------------------------|
A|-------------------------------------|
E|---3---2-----3---2-----3---2---0---2-|
 |
G|-------------------------------------||
D|-/-5---2-----------------------------||
A|-------------5---4-----2---1---------||
E|-------------------------------0---2-||

Chorus x4
G|---------------------------------------------------||
D|---------------------------------------------------||
A|---------------------------------------------------||
E|-3--2--2-2222--3--2--2-2222--3--2--0--2--2--2-2222-||

Outro              x2|
G|-------------------|--------------------------------|X2
D|-------------------|--------------------------------|
A|-------------------|--------------------------------|
E|-333333-2222222222-|--333333-222222-0000-2222222222-|
 |
G|-------------------------------------------------------------|X4
D|-------------------------------------------------------------|
A|-----------------------------------------------2-------------|
E|-22222222222222-22222222222222-2222222222222-5---5-3-5-3-2-3-|
 |                                     |1.            |2.
G|-------------------------------------|--------------|-----------||X2
D|-------------------------------------|--------------|-----------||
A|-------------------------------------|--------------|-----------||
E|-3--2--2-2222--3--2--2-2222--3--2--0-|-2--2--2-2222-|-2--0--2-/-||

  development and support by
dmitry ivanov