rock
 
|tablatures   |lyrics   |discussion forums   |more tabs @ XGuitar.com

Iced Earth tabs

Life and Death bass tab

Tune down, but standard sounds fine 2

F#||---------------------|----------------12--------|
C#||---------------------|-----------9-10-----10----|
G#||--7---7--------------|------------------------0/|
D#||--------0------------|--------------------------|



----------------------------|------------------------|---------------------|
--------7----------7-9-7----|--------7---------------|---------------------|
--5---5---------10-------10-|--5---5------5---5------|--7---7--------------|
----------------------------|-------------------5/---|--------0------------|



--9---9------------12--------|----------------------------|
--------9-----9-10-----10----|--------7----------7-9-7----|
---------------------------0/|--5---5---------10-------10-|
-----------------------------|----------------------------|



------------------------|-----------------------|-----------------------|
--------7---------------|-----------------------|-----------------------|
--5---5------5---5------|--------10-------------|--------10-------------|
-------------------5/---|--8---8-------8--------|--8---8-------8--------|



---------------------|----------9------12--------|------------------------|
---------------------|------------9-10-----10----|--------7-----------7---|
--7---7--------------|-------------------------0/|--5---5-----------5---5-|
--------0------------|---------------------------|------------------------|



------------------------|------------------------|-----------------------|
--7-9---7---------------|------------------------|-----------------------|
-------------5---5------|--------10--------------|--------10-------------|
-------------------5/---|--8---8-------8-------3-|--8---8-------8--------|



-------------9--------|------------------12--------|--------------------------|
----------------------|-------------9-12-----10----|--------7---------7---7---|
--7---7---------------|----------10--------------0/|--5---5---------5---5---5-|
--------0-------------|----------------------------|--------------------------|



-----------------------|-----------------------|-----------------------|
--7-9------------------|-----------------------|-----------------------|
------------5---5-5----|--------10-------------|--------10-------------|
-----------------------|--8---8-------8--------|--8---8-------8--------|



--------------------------|-----------------12-------------|
--------------------------|------------9-12----12-9--------|
--7---7-7---7-------------|---------10---------------10--0/|
--------------0---0-0---0-|--0-----------------------------|



------------------------|---------------------|------------------------|
--------7-----------7---|--7-9---7------------|------------------------|
--5---5-----------5---5-|---------------------|--------10--------------|
------------------------|---------------------|--8---8-------8-------3-|



-----------------------|---------------------|------------------|
-----------------------|---------------------|------------------|
--------10-------------|--7---7--------------|------------------|
--8---8-------8--------|--------0------------|------------------|



------------------------------------------|--------------------------------|
------------------------------------------|--------------------------------|
------------------------------------------|--------------------------------|
--0-0-0-0-0-0-0-0-0-0-1-0-0-0-0-0-0-0-0-0-|--1-0-0-0-0-0-0-0-0-0-1------1--|



------------------------------------------|--------------------------------|
------------------------------------------|--------------------------------|
------------------------------------------|--------------------------------|
--0-0-0-0-0-0-0-0-0-0-1-0-0-0-0-0-0-0-0-0-|--1-0-0-0-0-0-0-0-0-0-1------1--|



------------------------------------------|--------------------------------|
------------------------------------------|--------------------------------|
--7-7-7-7-7-7-7-7-7-7-8-7-7-7-7-7-7-7-7-7-|--8-7-7-7-7-7-7-7-7-0-8------8--|
------------------------------------------|--------------------------------|



------------------------------------------|--------------------------------|
------------------------------------------|--------------------------------|
--7-7-7-7-7-7-7-7-7-7-8-7-7-7-7-7-7-7-7-7-|--8-7-7-7-7-7-7-7-7-0-8------8--|
------------------------------------------|--------------------------------|



------------------------------------------|--------------------------------|
------------------------------------------|--------------------------------|
--7-7-7-7-7-7-7-7-7-8-7-7-7-7-7-7-7-7-7-8-|--7-7-7-7-7-7-7-7-7-0-8------8--|
------------------------------------------|--------------------------------|



------------------------------------------|--------------------------------|
------------------------------------------|--------------------------------|
--7-7-7-7-7-7-7-7-7-8-7-7-7-7-7-7-7-7-7-8-|--7-7-7-7-7-7-7-7-7-0-8------8--|
------------------------------------------|--------------------------------|



-------------------------|-----------------------------|
-------------------------|-----------------------------|
--7--------7-8-7-5--7--8-|--10--------10-12-10-8--7--5-|
-------------------------|-----------------------------|



-------------------------|-----------------------------|
-------------------------|-----------------------------|
--7--------7-8-7-5--7--8-|--10--------10-12-10-8--7--5-|
-------------------------|-----------------------------|



------------------------------|------------------------------------------|
------------------------------|------------------------------------------|
--7-------------7-8-7-5--7--8-|--10--10-10-10--10-10-10-10-12-10-8--7--5-|
-----0-0-0--0-0---------------|------------------------------------------|



------------------------------|-----------------------------------------|
------------------------------|-----------------------------------------|
--7-------------7-8-7-5--7--8-|--10--10-10-10--10-10-10-10-12-10-8--7/--|
-----0-0-0--0-0---------------|-----------------------------------------|



------------------------------------------------|
------------------------------------------------|
--10-7-7-7-7-7-7-7-7-7-7-10-7-7-7-7-7-7-7-7-7-7-|
------------------------------------------------|



--------------------------------------|
------10---9---8---------10---9---8---|
--8-8----8---8---8-8-8-8----8---8---8-|
--------------------------------------|



------------------------------------------------|
------------------------------------------------|
--10-7-7-7-7-7-7-7-7-7-7-10-7-7-7-7-7-7-7-7-7-7-|
------------------------------------------------|



--------------------------------------|
------10---9---8---------10---9---8---|
--8-8----8---8---8-8-8-8----8---8---8-|
--------------------------------------|



------------------------------------------------|
------------------------------------------------|
--10-7-7-7-7-7-7-7-7-7-7-10-7-7-7-7-7-7-7-7-7-7-|
------------------------------------------------|



--------------------------------------|
------10---9---8---------10---9---8---|
--8-8----8---8---8-8-8-8----8---8---8-|
--------------------------------------|



------------------------------------------------|
------------------------------------------------|
--10-7-7-7-7-7-7-7-7-7-7-10-7-7-7-7-7-7-7-7-7-7-|
------------------------------------------------|



--------------------------------------|-------------------|-------------------|
------10---9---8---------10---9---8---|-------------------|-------------------|
--8-8----8---8---8-8-8-8----8---8---8-|-------------------|-------------------|
--------------------------------------|--0----------------|------0------------|



-------------------------|--------------------------|
-------------------------|--------------------------|
-----------7-5-7-8--7--5-|--7---------7-5-7-8--7--5-|
------0------------------|-------0------------------|



------------------------------------------------|
------------------------------------------------|
--10-7-7-7-7-7-7-7-7-7-7-10-7-7-7-7-7-7-7-7-7-7-|
------------------------------------------------|



--------------------------------------|
------10---9---8---------10---9---8---|
--8-8----8---8---8-8-8-8----8---8---8-|
--------------------------------------|



------------------------------------------------|
------------------------------------------------|
--10-7-7-7-7-7-7-7-7-7-7-10-7-7-7-7-7-7-7-7-7-7-|
------------------------------------------------|



--------------------------------------|
------10---9---8---------10---9---8---|
--8-8----8---8---8-8-8-8----8---8---8-|
--------------------------------------|



------------------------------------------------|
------------------------------------------------|
--10-7-7-7-7-7-7-7-7-7-7-10-7-7-7-7-7-7-7-7-7-7-|
------------------------------------------------|



--------------------------------------|
------10---9---8---------10---9---8---|
--8-8----8---8---8-8-8-8----8---8---8-|
--------------------------------------|



------------------------------------------------|
------------------------------------------------|
--10-7-7-7-7-7-7-7-7-7-7-10-7-7-7-7-7-7-7-7-7-7-|
------------------------------------------------|



--------------------------------------|--------------------|
------10---9---8---------10---9---8---|--------------------|
--8-8----8---8---8-8-8-8----8---8---8-|--7--------5--------|
--------------------------------------|--------------------|



--------------------|---------------|--------------------|--------------------|
--------------------|---------------|--------------------|--------------------|
--3--------2--------|---------------|--7--------5--------|--3--------2--------|
--------------------|--0------------|--------------------|--------------------|



---------------|----------------------|----------------------|
---------------|----------------------|----------------------|
---------------|----------------------|------------------0---|
--0------------|--0------------1-0-3--|--------------3-1---1-|



---------------------|----------------------|-------------------------------|
---------------------|----------------------|-------------------------------|
---------------------|------------------0---|--7--8-7--8-5-8-7--7-7-8-7-10--|
--------------1-0-3--|--------------3-1---1-|-------------------------------|



-----------------------------------|-------------------------------|
-----------------------------------|-------------------------------|
--7--8-7--8-5-8-7--7-7-7-10-8-12-8-|--7--8-7--8-5-8-7--7-7-8-7-10--|
-----------------------------------|-------------------------------|



-----------------------------------|-------------------------------|
-----------------------------------|-------------------------------|
--7--8-7--8-5-8-7--7-7-7-10-8-12-8-|--7--8-7--8-5-8-7--7-7-8-7-10--|
-----------------------------------|-------------------------------|



-----------------------------------|-----------------------------|
-----------------------------------|-----------------------------|
--7--8-7--8-5-8-7--7-7-7-10-8-12-8-|--5----5--5-5-3-3-3-3-0--0-0-|
-----------------------------------|-----------------------------|



-------------------------------|-----------------------------------|
-------------------------------|-----------------------------------|
--7--8-7--8-5-8-7--7-7-8-7-10--|--7--8-7--8-5-8-7--7-7-7-10-8-12-8-|
-------------------------------|-----------------------------------|



-------------------------------|-----------------------------------|
-------------------------------|-----------------------------------|
--7--8-7--8-5-8-7--7-7-8-7-10--|--7--8-7--8-5-8-7--7-7-7-10-8-12-8-|
-------------------------------|-----------------------------------|



-----------------------------|------------------------------|
-----------------------------|------------------------------|
--5----5--5-5-3-3-3-3-0--0-0-|------------------------------|
-----------------------------|--0--1-0--1-1-1-0--0-0-1-0-3--|



----------------------------------|------------------------------|
----------------------------------|------------------------------|
--5-5-5-5-5-5-5-5-3-3-3-3-0-0-0-0-|------------------------------|
----------------------------------|--0--1-0--1-1-1-0--0-0-1-0-3--|



----------------------------------|------------------------------|
----------------------------------|------------------------------|
--5-5-5-5-5-5-5-5-3-3-3-3-0-0-0-0-|------------------------------|
----------------------------------|--0--1-0--1-1-1-0--0-0-1-0-3--|



----------------------------------|------------------------------|
----------------------------------|------------------------------|
--5-5-5-5-5-5-5-5-3-3-3-3-0-0-0-0-|------------------------------|
----------------------------------|--0--1-0--1-1-1-0--0-0-1-0-3--|



----------------------------------|-----------------------|
----------------------------------|-----------------------|
--5-5-5-5-5-5-5-5-3-3-3-3-0-0-0-0-|-----------------------|
----------------------------------|--6----5----3--1--0----|



------------------------|------------------------|------------------------|
------------------------|------------------------|------------------------|
--5----5----5-----------|------------------------|--2----2----2-----------|
-----------------4--5-6-|--8----8----8----2--4-5-|-----------------0--2-3-|



-----------------------|-----------------------|------------------------|
-----------------------|-----------------------|------------------------|
--0----0----2-0--------|-----------------------|--5----5----5-----------|
----------3------------|--6----5----3--1--0----|-----------------4--5-6-|



------------------------|------------------------|-----------------------|
------------------------|------------------------|-----------------------|
------------------------|--2----2----2-----------|--0----0----2-0--------|
--8----8----8----2--4-5-|-----------------0--2-3-|----------3------------|



-----------------------|------------------------|------------------------|
-----------------------|------------------------|------------------------|
-----------------------|--5----5----5-----------|------------------------|
--6----5----3--1--0----|-----------------4--5-6-|--8----8----8----2--4-5-|



------------------------|-----------------------|-----------------------|
------------------------|-----------------------|-----------------------|
--2----2----2-----------|--0----0----2-0--------|-----------------------|
-----------------0--2-3-|----------3------------|--6----5----3--1--0----|



------------------------|------------------------|------------------------|
------------------------|------------------------|------------------------|
--5----5----5-----------|------------------------|--2----2----2-----------|
-----------------4--5-6-|--8----8----8----2--4-5-|-----------------0--2-3-|



-----------------------|------|------------------------------------------|
-----------------------|------|------------------------------------------|
--0----0----2-0--------|------|--7-7-7-7-7-7-7-7-7-7-8-7-7-7-7-7-7-7-7-7-|
----------3------------|------|------------------------------------------|



--------------------------------|------------------------------------------|
--------------------------------|------------------------------------------|
--8-7-7-7-7-7-7-7-7-0-8------8--|--7-7-7-7-7-7-7-7-7-7-8-7-7-7-7-7-7-7-7-7-|
--------------------------------|------------------------------------------|



--------------------------------|------------------------------------------|
--------------------------------|------------------------------------------|
--8-7-7-7-7-7-7-7-7-0-8------8--|--7-7-7-7-7-7-7-7-7-8-7-7-7-7-7-7-7-7-7-8-|
--------------------------------|------------------------------------------|



--------------------------------|------------------------------------------|
--------------------------------|------------------------------------------|
--7-7-7-7-7-7-7-7-7-0-8------8--|--7-7-7-7-7-7-7-7-7-8-7-7-7-7-7-7-7-7-7-8-|
--------------------------------|------------------------------------------|



--------------------------------|-------------------|-------------------|
--------------------------------|-------------------|-------------------|
--7-7-7-7-7-7-7-7-7-0-8------8--|-------------------|-------------------|
--------------------------------|--0----------------|------0------------|



-------------------------|--------------------------|
-------------------------|--------------------------|
-----------7-5-7-8--7--5-|--7---------7-5-7-8--7--5-|
------0------------------|-------0------------------|



---------------------------------|----------------------------------|
---------------------------------|----------------------------------|
--5--5-5-5-5-5-5-----------------|----------------------------------|
-----------------3--3-3-3-3--3-3-|--6--6-6-6-6-8-10-5--5-5-5-5--5-5-|



------------------------------------|
-----------------5--5-5-7-7-8-10-12-|
--5--5-5-5-5-5-5--------------------|
------------------------------------|



-----------------------------------------------|
--12--12-12-12-12-14-15------------------------|
------------------------15--15-15-15-15--15-15-|
-----------------------------------------------|



---------------------------------|----------------------------------|
---------------------------------|----------------------------------|
--5--5-5-5-5-5-5-----------------|----------------------------------|
-----------------3--3-3-3-3--3-3-|--6--6-6-6-6-8-10-5--5-5-5-5--5-5-|



------------------------------------|-----------------------------------|
-----------------5--5-5-7-7-8-10-12-|--12--12-12-12-12-14-15------------|
--5--5-5-5-5-5-5--------------------|------------------------15---------|
------------------------------------|-----------------------------------|



------------------------------------------------|
------------------------------------------------|
--10-7-7-7-7-7-7-7-7-7-7-10-7-7-7-7-7-7-7-7-7-7-|
------------------------------------------------|



-------------------------------------|---------------------|----||
------10---9---8---------10---9---8/-|---------------------|----||
--8-8----8---8---8-8-8-8----8---8----|---------------------|----||
-------------------------------------|--0-0--0-------------|----||
  development and support by
dmitry ivanov