rock
 
|tablatures   |lyrics   |discussion forums   |more tabs @ XGuitar.com

Iced Earth tabs

Last December bass tab

ICED EARTH
Last December
from Burnt Offerings by Schaffer
Transcripted by Stefano Lopez (toscanino@inwind.it)

FIND EVERY ICED EARTH SONG AND
THE MOST UPDATED VERSION OF THIS SONG AT:

                          The Frozen Palace
                  http://abysslord.com/icedearth/

PLEASE DO NOT COPY THIS TAB TO ANOTHER SITE 
WITHOUT AUTHORS' PERMISSION.  THANK YOU.

Tune down  step
 
Intro       X2|             
G|------------|--------------|--------------||X2
D|------------|--------------|-/-3-2---5--3-||
A|------------|--------------|--------------||
E|-0-----0--0-|-1-----1--1---|--------------||

Verse 1     X2|             
G|------------|--------------|--------------||X4
D|------------|--------------|-/-3-2---5--3-||
A|------------|--------------|--------------||
E|-0-----0--0-|-1-----1--1---|--------------||

Riff 1 x2
G|-------------------------------------------||
D|-------------------------------------------||
A|-------------------------------------------||
E|-0-0--0-0-0-0--0-0-0-0--0-0-3-3-3-3-1--1-1-||

Verse 2 x2
G|-------------------------------------------------|-----------------|
D|-------------------------------------------------|-----------------|
A|-5h7-------------5h7-------------5h7-------------|-----------------|
E|-----0-0-0-0-0-0-----0-0-0-0-0-0-----0-0-0-0-0-0-|-3-3-3-3-1-1-1-1-|
 | 
G|-------------------------------------------------|-----------------||
D|-------------------------------------------------|-----------------||
A|-5h7-------------5h7-------------5h7-------------|-----------------||
E|-----0-0-0-0-0-0-----0-0-0-0-0-0-----0-0-0-0-0-0-|-3-3-3-3-1-1---1-||

Riff 2
G|-------------------------------------------------||
D|-------------------------------------------------||
A|-5/7--7--7-7-7\5--5--5-5-5/-8---8---8--8--8\7--7-||
E|-------------------------------------------------||

Verse 3 x2
G|-------------------------------------------------|-----------------|
D|-------------------------------------------------|-----------------|
A|-5h7-------------5h7-------------5h7-------------|-----------------|
E|-----0-0-0-0-0-0-----0-0-0-0-0-0-----0-0-0-0-0-0-|-3-3-3-3-1-1-1-1-|
 | 
G|-------------------------------------------------|-----------------||
D|-------------------------------------------------|-----------------||
A|-5h7-------------5h7-------------5h7-------------|-----------------||
E|-----0-0-0-0-0-0-----0-0-0-0-0-0-----0-0-0-0-0-0-|-3-3-3-3-1-1---1-||

Chorus
G|-------------------------------------------------|
D|-------------------------------------------------|
A|-5/7--7--7-7-7\5--5--5-5-5/-8---8---8--8--8\7--7-|
E|-------------------------------------------------|
 |
G|-------------------------------|-------------------------------|
D|-------------------------------|-------------------------------|
A|-5h7-----------5h7-------------|-5h7-----------5h7-------------|
E|-----000-0-0-0-----0-0-0-0-0-0-|-----000-0-0-0-----0-0-0-0-0-0-|
 |
G|-------------------------------------------------|
D|-------------------------------------------------|
A|-5/7--7--7-7-7\5--5--5-5-5/-8---8---8--8--8\7--7-|
E|-------------------------------------------------|
 |
G|-------------------------------|-------------------------------|
D|-------------------------------|-------------------------------|
A|-5h7-----------5h7-------------|-5h7-----------5h7-------------|
E|-----000-0-0-0-----0-0-0-0-0-0-|-----000-0-0-0-----0-0-0-0-0-0-|
 |
G|---------------------------------------------|
D|---------------------------------------------|
A|---------------------------------------------|
E|--7-5--5--5-5-5\2--2--2-2-2\3--3--3-3-3\0--0-|
 |
G|-------------------------------|-------------------------------|
D|-------------------------------|-------------------------------|
A|-5h7-----------5h7-------------|-5h7-----------5h7-------------|
E|-----000-0-0-0-----0-0-0-0-0-0-|-----000-0-0-0-----0-0-0-0-0-0-|
 |
G|---------------------------------------------||
D|---------------------------------------------||
A|---------------------------------------------||
E|--7-5--5--5-5-5\2--2--2-2-2\3--3--3-3-3\0--0-||

Interlude x4 
G|-----------------------------------------------------||
D|-----------------------------------------------------||
A|------------7h8-5-5-5-5-5-------------------------7--||
E|-0--0-0-0-0---------------/3-1-1-1-1-1-h3-0-0-0-0----||

Verse 4 x2
G|-------------------------------------------------|-----------------|
D|-------------------------------------------------|-----------------|
A|-5h7-------------5h7-------------5h7-------------|-----------------|
E|-----000-0-0-0-0-----000-0-0-0-0-----000-0-0-0-0-|-3-3-3-3-1-1-1-1-|
 |       
G|-------------------------------------------------|-----------------||
D|-------------------------------------------------|-----------------||
A|-5h7-------------5h7-------------5h7-------------|-----------------||
E|-----000-0-0-0-0-----000-0-0-0-0-----000-0-0-0-0-|-3-3-3-3-1-1---1-||

Chorus
G|-------------------------------------------------|
D|-------------------------------------------------|
A|-5/7--7--7-7-7\5--5--5-5-5/-8---8---8--8--8\7--7-|
E|-------------------------------------------------|
 |
G|-------------------------------|-------------------------------|
D|-------------------------------|-------------------------------|
A|-5h7-----------5h7-------------|-5h7-----------5h7-------------|
E|-----000-0-0-0-----0-0-0-0-0-0-|-----000-0-0-0-----0-0-0-0-0-0-|
 |
G|-------------------------------------------------|
D|-------------------------------------------------|
A|-5/7--7--7-7-7\5--5--5-5-5/-8---8---8--8--8\7--7-|
E|-------------------------------------------------|
 |
G|-------------------------------|-------------------------------|
D|-------------------------------|-------------------------------|
A|-5h7-----------5h7-------------|-5h7-----------5h7-------------|
E|-----000-0-0-0-----0-0-0-0-0-0-|-----000-0-0-0-----0-0-0-0-0-0-|
 |
G|---------------------------------------------|
D|---------------------------------------------|
A|---------------------------------------------|
E|--7-5--5--5-5-5\2--2--2-2-2\3--3--3-3-3\0--0-|
 |
G|-------------------------------|-------------------------------|
D|-------------------------------|-------------------------------|
A|-5h7-----------5h7-------------|-5h7-----------5h7-------------|
E|-----000-0-0-0-----0-0-0-0-0-0-|-----000-0-0-0-----0-0-0-0-0-0-|
 |
G|---------------------------------------------||
D|---------------------------------------------||
A|---------------------------------------------||
E|--7-5--5--5-5-5\2--2--2-2-2\3--3--3-3-3\0--0-||

Ending
G|--------------------------------------------------------------------||
D|--------------------------------------------------------------------||
A|-5h7-------------5h7-------------5h7--------------------------------||
E|-----0-0-0-0-0-0-----0-0-0-0-0-0-----0-0-0-0-0-0--3-0-0-2-0-0-3-2-0-||

  development and support by
dmitry ivanov