rock
 
|tablatures   |lyrics   |discussion forums   |more tabs @ XGuitar.com

Iced Earth tabs

Jeckyl and Hyde guitar tab

Iced Earth:  Jeckyl And Hyde

transcribed by: Russ Elton (webmaster@abysslord.com)

FIND EVERY ICED EARTH SONG AND
THE MOST UPDATED VERSION OF THIS SONG AT:

                          The Frozen Palace
                  http://abysslord.com/icedearth/

Date last modified:  May 17, 2003
  
PLEASE DO NOT COPY THIS TAB TO ANOTHER SITE 
WITHOUT AUTHORS' PERMISSION.  THANK YOU.

Tuning: Eb


Riff 1  (12 String Acoustic)
eb|-----------------------------|
Bb|-------0-----------0---------|
Gb|-----0---0-------0---0-------|
Db|---4-------4---4-------4-----|
Ab|-2-----------2---------------|
Eb|-------------------------3-2-|

                            Final note
eb|-------------------------|-----|
Bb|-------------------------|-----|
Gb|-------0-----------0-----|-----|
Db|-----0---0-------0---0---|-----|
Ab|---3-------3---3-------3-|--2--|
Eb|-1-----------1-----------|-----|



Riff 2 (Distortion, Solo Rhythm)
eb|---------------------------------|
Bb|---------------------------------|
Gb|-----------4---------------------|
Db|-----4-----------5-----4---------|
Ab|-2-2---222---2-2---2-2---2-2-5-5-|
Eb|---------------------------------|
    * *   ***   * *   * *   * * 
eb|---------------------------------|
Bb|---------------------------------|
Gb|-----------4---------------------|
Db|-----4-----------5-----4---------|
Ab|-2-2---222---2-2---2-2---2-2-----|
Eb|-----------------------------3-2-|
    * *   ***   * *   * *   * * * *
eb|---------------------------------|
Bb|---------------------------------|
Gb|---------------------------------|
Db|-----------2-----3-----2---------|
Ab|-----3-----------------------3-3-|
Eb|-1-1---111---1-1---1-1---1-1-----|
    * *   ***   * *   * *   * * 
eb|---------------------------------|
Bb|---------------------------------|
Gb|---------------------------------|
Db|-----------2-----3-----2---------|
Ab|-----3-----------------------3-3-|
Eb|-1-1---111---1-1---1-1---1-1-----|
    * *   ***   * *   * *   * * 

Intro solo
Guitar 2
eb|-------------------------------------------------------------|
Bb|-12~-------------------------10-12-13-12-12b13~~---12h13-12~-|
Gb|------11~--10~--11~--\7-5------------------------------------|
Db|-------------------------------------------------------------|
Ab|-------------------------------------------------------------|
Eb|-------------------------------------------------------------|

Guitar 3
eb|-19~--14~--13~--14~--10-8----17-19-20-19-19b20~~---19h20-19~-|
Bb|-------------------------------------------------------------|
Gb|-------------------------------------------------------------|
Db|-------------------------------------------------------------|
Ab|-------------------------------------------------------------|
Eb|-------------------------------------------------------------|

End solo


Play Riff 2   "What's the reason..."


Riff 3
eb|----------------------|
Bb|----------------------|
Gb|----------------------|
Db|-4---------4----7--5--|
Ab|-2----3----2----5--3--|
Eb|------1---------------|
   "I have forced you here..."


Play Riff 2   "Who is this..."
Play Riff 3   "I have forced you here..."

Lead into next section:
eb|-----|
Bb|-----|
Gb|-----|
Db|--4--|
Ab|--2--|
Eb|-----|


Play Riff 1   "I'm out of control..."


Riff 4
Guitar 1
eb|----------------------------------------|
Bb|----------------------------------------|
Gb|----------------------------------------|
Db|-4--4-4-4-4--4-4-4-4--4-----4-4-4-4-4-4-|
Ab|-2--2-2-2-2--2-2-2-2--2-222-2-2-2-2-2-2-|
Eb|----------------------------------------|
    *  * * * *  * * * *  * *** * * * * * * 
eb|----------------------------------------|
Bb|----------------------------------------|
Gb|----------------------------------------|
Db|----------------------------------------|
Ab|-3--3-3-3-3--3-3-3-3--3-----3-3-3-3-3-3-|
Eb|-1--1-1-1-1--1-1-1-1--1-111-1-1-1-1-1-1-|
    *  * * * *  * * * *  * *** * * * * * * 

Guitar 2 (12 String Acoustic)
eb|----------------------------|
Bb|----------------------------|
Gb|--------0----------------0--|
Db|-----4----------------4-----|
Ab|--2-------------------------|
Eb|-------------------1--------|

eb|------------------------------|
Bb|----------------------------0-|
Gb|--------0----------------0----|
Db|-----4----------------4-------|
Ab|--2---------------------------|
Eb|-------------------1----------|



Riff 5
Guitar 1
eb|---------------------------------|
Bb|---------------------------------|
Gb|-----5-4~--4--------5-4~--4-4h5\-|
Db|---4---a---a-5----4---a---a-a----|
Ab|-2--------------2----------------|
Eb|---------------------------------|
   "I can feel you..."
eb|---------------------------|
Bb|---------------------------|
Gb|---------------------------|
Db|-----2-3~--------2-3~------|
Ab|---3---a-------3---a-------|
Eb|-1-----------1--------//\\-|


Guitar 2
eb|-------------------------------|
Bb|-------------------------------|
Gb|-4~----------------------------|
Db|--------5--4-------------------|
Ab|---------------5--4-3-----2--3-|
Eb|-------------------------------|


Play Riff 2   Solo Rhythm

Solo
eb|-----------------------------------------------|
Bb|-----------------------------------------------|
Gb|-14b16r14---(14)b16---14b16-14b16-14b16-14b16~-|
Db|-----------------------------------------------|
Ab|-----------------------------------------------|
Eb|-----------------------------------------------|

eb|-----------------------------------|
Bb|-15b17--15b17r15-14-12----12-------|
Gb|-----------------------14----/11~~-|
Db|-----------------------------------|
Ab|-----------------------------------|
Eb|-----------------------------------|

eb|----------------------|
Bb|----------------------|
Gb|-11-11-11-10-9-12-11~-|
Db|----------------------|
Ab|----------------------|
Eb|----------------------|
                    x3
eb|------------------|-------------------|
Bb|------------------|--12h14p12----12~~-|
Gb|------------------|-----------15------|
Db|-----121214151412-|-------------------|
Ab|-1414-------------|-------------------|
Eb|------------------|-------------------|
     * * * * * * * * 

(Guitar 2 plays top notes)
eb|-10-10-10-12-12-12-12/14-14-14-14\10~~-|
Bb|-12-12-12-13-13-13-13/15-15-15-15\12~~-|
Gb|---------------------------------------|
Db|---------------------------------------|
Ab|---------------------------------------|
Eb|---------------------------------------|

eb|-10-10-10-12-12-12-12/15-14-12-12~~-|
Bb|-12-12-12-13-13-13-13/17-15-13-13~~-|
Gb|------------------------------------|
Db|------------------------------------|
Ab|------------------------------------|
Eb|------------------------------------|

eb|-21p17------17-21p17------17-22p17------17-21p17-------|
Bb|------19--19--------19--19--------19--19--------19-----|
Gb|--------18------------18------------18-------------18\-|
Db|-------------------------------------------------------|
Ab|-------------------------------------------------------|
Eb|-------------------------------------------------------|

eb|-12tm--15tm--14-----------14-17p14--14-16-17-17b19~~~-|
Bb|---------------17-16-16-17--------17------------------|
Gb|------------------------------------------------------|
Db|------------------------------------------------------|
Ab|------------------------------------------------------|
Eb|------------------------------------------------------|

End solo


Play Riff 2   "I won't let you..."
Play Riff 3   "I have forced you here..."


Riff 5a
Guitar 1
eb|---------------------------------|
Bb|---------------------------------|
Gb|-----5-4~--4--------5-4~--4-4h5\-|
Db|---4---a---a-5----4---a---a-a----|
Ab|-2--------------2----------------|
Eb|---------------------------------|
                              Final chord
eb|---------------------------|-----|
Bb|---------------------------|-----|
Gb|---------------------------|-----|
Db|-----2-3~--------2-3~------|--4--|
Ab|---3---a-------3---a-------|--2--|
Eb|-1-----------1--------//\\-|-----|

Guitar 2                          Final note
eb|-------------------------------|-----|
Bb|-------------------------------|-----|
Gb|-4~----------------------------|--4--|
Db|--------5--4-------------------|-----|
Ab|---------------5--4-3-----2--3-|-----|
Eb|-------------------------------|-----|

Guitar 3                          Final note
eb|-------------------------------|-----|
Bb|-12~---------------------12-13-|-12--|
Gb|-------12--11--7--6-5----------|-----|
Db|-------------------------------|-----|
Ab|-------------------------------|-----|
Eb|-------------------------------|-----|



Notation:

10^        = bend a quarter step.
10b11      = bend a half step.
10b12      = bend a full step.
10b12r10   = bend and release.
[10]12     = pre-bend.
[10]12r10  = pre-bend and release.
{14}       = pick the 14th fret while holding the most 
             previous bend.
<17>       = touch the string above the 17th fret while 
             previous note(s) is(are) still ringing.

10b13*     = tremolo bar bend, from the 10th fret to the 13th fret.
7d4*       = tremolo bar dive, from the 7th fret to the 4th fret. 
12~*       = tremolo bar vibrato.

x   =  mute with fret-hand
*   =  palm mute
X\\ =  pick slide
h   =  hammer-on
p   =  pull-off
~   =  vibrato
t   =  finger tap
/   =  slide up
\   =  slide down
h.  =  natural harmonics
a   =  artificial harmonics
(9) =  ghost note
tm  =  trem picking
tr  =  trill
  development and support by
dmitry ivanov