rock
 
|tablatures   |lyrics   |discussion forums   |more tabs @ XGuitar.com

Iced Earth tabs

Jeckyl and Hyde bass tab

Iced Earth
Jekill & Hyde
from Horror Show by Schaffer, Barlow
Transcripted by Stefano Lopez (toscanino@inwind.it)

FIND EVERY ICED EARTH SONG AND
THE MOST UPDATED VERSION OF THIS SONG AT:

                          The Frozen Palace
                  http://abysslord.com/icedearth/

PLEASE DO NOT COPY THIS TAB TO ANOTHER SITE 
WITHOUT AUTHORS' PERMISSION.  THANK YOU.

Tune  step down

Intro guitar arp

Riff 1
G|---------------------------------|---------------------------------|
D|---------------------------------|---------------------------------|
A|-2-2-2-222-2-2-2-2-2-2-2-2-2-5-5-|-2-2-2-222-2-2-2-2-2-2-2-2-2-----|
E|---------------------------------|-----------------------------3-2-|
 |
G|---------------------------------|---------------------------------||
D|---------------------------------|---------------------------------||
A|-----------------------------3-3-|-----------------------------3-3-||
E|-1-1-1-111-1-1-1-1-1-1-1-1-1-----|-1-1-1-111-1-1-1-1-1-1-1-1-1-----||

Verse 1 x2
G|---------------------------------|---------------------------------|
D|---------------------------------|---------------------------------|
A|-2-2-2-222-2-2-2-2-2-2-2-2-2-5-5-|-2-2-2-222-2-2-2-2-2-2-2-2-2-----|
E|---------------------------------|-----------------------------3-2-|
 |
G|---------------------------------|---------------------------------||
D|---------------------------------|---------------------------------||
A|-----------------------------3-3-|-----------------------------3-3-||
E|-1-1-1-111-1-1-1-1-1-1-1-1-1-----|-1-1-1-111-1-1-1-1-1-1-1-1-1-----||

Chorus x2
G|-------------------------------------------------------------------------||
D|-------------------------------------------------------------------------||
A|-22222222222222222-------------------22222222222222222-55555555-33333333-||
E|-------------------11111111111111111-------------------------------------||

Verse 2 x2
G|---------------------------------|---------------------------------|
D|---------------------------------|---------------------------------|
A|-2-2-2-222-2-2-2-2-2-2-2-2-2-5-5-|-2-2-2-222-2-2-2-2-2-2-2-2-2-----|
E|---------------------------------|-----------------------------3-2-|
 |
G|---------------------------------|---------------------------------||
D|---------------------------------|---------------------------------||
A|-----------------------------3-3-|-----------------------------3-3-||
E|-1-1-1-111-1-1-1-1-1-1-1-1-1-----|-1-1-1-111-1-1-1-1-1-1-1-1-1-----||

Chorus x2
G|-------------------------------------------------------------------------||
D|-------------------------------------------------------------------------||
A|-22222222222222222-------------------22222222222222222-55555555-33333333-||
E|-------------------11111111111111111-------------------------------------||

G|------||
D|------||
A|--2-r-||
E|------||

Riff 2 x4
G|----------------------------------------|----------------------------------------||
D|----------------------------------------|----------------------------------------||
A|-2--2-2-2-2--2-2-2-2--2-222-2-2-2-2-2-2-|----------------------------------------||
E|----------------------------------------|-1--1-1-1-1--1-1-1-1--1-111-1-1-1-1-1-1-||
Interlude (fretless bass)
G|-----------------------------|----9-9h10p9------------|
D|-/-9-r--------------5-4-3-r--|--9------------9-/-3-r--|
A|-----------------------------|------------------------|
E|-----------------------------|------------------------|
 |
G|-----------------------10-r--|-------/-12-11-r--||
D|-/-9-r------10-9-10-12-------|------------------||
A|-----------------------------|------------------||
E|-----------------------------|------------------||

Riff 2 x4
G|----------------------------------------|----------------------------------------||
D|----------------------------------------|----------------------------------------||
A|-2--2-2-2-2--2-2-2-2--2-222-2-2-2-2-2-2-|----------------------------------------||
E|----------------------------------------|-1--1-1-1-1--1-1-1-1--1-111-1-1-1-1-1-1-||

Verse 3 x2
G|---------------------------------|---------------------------||
D|---------------------------------|---------------------------||
A|-2-r------------2----------------|---------------------------||
E|---------------------------------|-1-r---------1--------//\\-||

Solo x2
G|---------------------------------|---------------------------------|
D|---------------------------------|---------------------------------|
A|-2-2-2-222-2-2-2-2-2-2-2-2-2-5-5-|-2-2-2-222-2-2-2-2-2-2-2-2-2-----|
E|---------------------------------|-----------------------------3-2-|
 |
G|---------------------------------|---------------------------------||
D|---------------------------------|---------------------------------||
A|-----------------------------3-3-|-----------------------------3-3-||
E|-1-1-1-111-1-1-1-1-1-1-1-1-1-----|-1-1-1-111-1-1-1-1-1-1-1-1-1-----||

Verse 4 x2
G|---------------------------------|---------------------------------|
D|---------------------------------|---------------------------------|
A|-2-2-2-222-2-2-2-2-2-2-2-2-2-5-5-|-2-2-2-222-2-2-2-2-2-2-2-2-2-----|
E|---------------------------------|-----------------------------3-2-|
 |
G|---------------------------------|---------------------------------||
D|---------------------------------|---------------------------------||
A|-----------------------------3-3-|-----------------------------3-3-||
E|-1-1-1-111-1-1-1-1-1-1-1-1-1-----|-1-1-1-111-1-1-1-1-1-1-1-1-1-----||

Chorus x2
G|-------------------------------------------------------------------------||
D|-------------------------------------------------------------------------||
A|-22222222222222222-------------------22222222222222222-55555555-33333333-||
E|-------------------11111111111111111-------------------------------------||

Outro x2
G|---------------------------------|---------------------------||
D|---------------------------------|---------------------------||
A|-2-r------------2----------------|---------------------------||
E|---------------------------------|-1-r---------1--------//\\-||

G|------||
D|------||
A|--2-r-||
E|------||

  development and support by
dmitry ivanov