rock
 
|tablatures   |lyrics   |discussion forums   |more tabs @ XGuitar.com

Iced Earth tabs

Jack bass tab

Iced Earth
Jack
from Horror Show by Schaffer, Barlow 
Transcripted by Stefano Lopez (toscanino@inwind.it)

FIND EVERY ICED EARTH SONG AND
THE MOST UPDATED VERSION OF THIS SONG AT:

                          The Frozen Palace
                  http://abysslord.com/icedearth/

PLEASE DO NOT COPY THIS TAB TO ANOTHER SITE 
WITHOUT AUTHORS' PERMISSION.  THANK YOU.

Tune  step down

Intro
G|--------------------------------------------------------------------------||
D|--------------------------------------------------------------------------||
A|--------------------------------------------------------------------------||
E|-000000000000000000000000000000000000000000000000000000000000000000000000-||

Riff 1 x2
G|---------------------------------------|-------------------------------||
D|---------------------------------------|-------------------------------||
A|------8---7---5---10----8---5-7--8-----|----8---7---5---3---2----------||
E|-0-0----0---0---0----0----0--------000-|-0----0---0---0---0---0--5-3-2-||

Pre-verse x2
G|--------------------------------------------------------------------||
D|--------------------------------------------------------------------||
A|--------------------------------------------------------------------||
E|-0-----------------0-----------------0-------------3--3-3-3-3\1-1-0-||

Verse 1 x4
G|---------------------------------------|-------------------------------||
D|---------------------------------------|-------------------------------||
A|------8---7---5---10----8---5-7--8-----|----8---7---5---3---2----------||
E|-0-0----0---0---0----0----0--------000-|-0----0---0---0---0---0--5-3-2-||

Riff 2 x2
G|---------------------------------|--------------------------------||
D|---------------------------------|--------------------------------||
A|-----3-2-0-2-3-------3-2-0-2-3---|-----3-2-0-2-0------------------||
E|-0-0-----------0-0-0-----------0-|-0-0-----------3--3-3-3-3\1-1-0-||

Verse 2 x4
G|---------------------------------------|-------------------------------||
D|---------------------------------------|-------------------------------||
A|------8---7---5---10----8---5-7--8-----|----8---7---5---3---2----------||
E|-0-0----0---0---0----0----0--------000-|-0----0---0---0---0---0--5-3-2-||

Chorus
G|-----------------------------------|
D|-----------------------------------|
A|-----------------------------------|
E|-0-0-0-0-0-0-0-0-0-0-0-0-1-1-1-0-0-|
 |
G|---------------------------------|---------------------------------|X3
D|---------------------------------|---------------------------------|
A|-------7--------------------7-7--|-------7-------------------------|
E|-0-000---0-0-0-1--0-0-1/3\1------|-0-000---0-0-0-0-0-0-0-1-1-1-0-0-|
 |
G|----------------------------|| 
D|----------------------------||
A|-------7--------------------||
E|-0-000---0-0-0-1--0-0-1/3\1-||

Riff 2 x2
G|---------------------------------|--------------------------------||
D|---------------------------------|--------------------------------||
A|-----3-2-0-2-3-------3-2-0-2-3---|-----3-2-0-2-0------------------||
E|-0-0-----------0-0-0-----------0-|-0-0-----------3--3-3-3-3\1-1-0-||
Interlude
G|-----------------------------------|-----------------------------------|
D|------------Guitar riff------------|-----------------------------------|
A|-----------------------------------|-/-7-------------------------------|
E|-----------------------------------|---0-------------------------------|
 |                                     X2|
G|---------------------------------------|-------------||
D|---------------------------------------|-------------||
A|-7--3-2-----7--3-------7----------5--7-|---------7-r-||
E|-0----------0----5-----0--3-2--0-----0-|---------0-r-||

Riff 1 
G|---------------------------------------|-------------------------------||
D|---------------------------------------|-------------------------------||
A|------8---7---5---10----8---5-7--8-----|----8---7---5---3---2----------||
E|-0-0----0---0---0----0----0--------000-|-0----0---0---0---0---0--5-3-2-||

Verse 3 x4
G|---------------------------------------|-------------------------------||
D|---------------------------------------|-------------------------------||
A|------8---7---5---10----8---5-7--8-----|----8---7---5---3---2----------||
E|-0-0----0---0---0----0----0--------000-|-0----0---0---0---0---0--5-3-2-||

Chorus x2
G|-----------------------------------|
D|-----------------------------------|
A|-----------------------------------|
E|-0-0-0-0-0-0-0-0-0-0-0-0-1-1-1-0-0-|
 |
G|---------------------------------|---------------------------------|X3
D|---------------------------------|---------------------------------|
A|-------7--------------------7-7--|-------7-------------------------|
E|-0-000---0-0-0-1--0-0-1/3\1------|-0-000---0-0-0-0-0-0-0-1-1-1-0-0-|
 |
G|----------------------------|| 
D|----------------------------||
A|-------7--------------------||
E|-0-000---0-0-0-1--0-0-1/3\1-||



  development and support by
dmitry ivanov