rock
 
|tablatures   |lyrics   |discussion forums   |more tabs @ XGuitar.com

Iced Earth tabs

Im-Ho-Tep bass tab

Iced Earth
Im-Ho-Tep (Pharaoh's Curse)
from Horror Show by Schaffer, Barlow, Tarnowski
Transcripted by Stefano Lopez (toscanino@inwind.it)

FIND EVERY ICED EARTH SONG AND
THE MOST UPDATED VERSION OF THIS SONG AT:

                          The Frozen Palace
                  http://abysslord.com/icedearth/

PLEASE DO NOT COPY THIS TAB TO ANOTHER SITE 
WITHOUT AUTHORS' PERMISSION.  THANK YOU.

Tune  step down

Intro 
G|-------------------------------------------|X4
D|-------------------------------------------|
A|------7----------7---7--5--5-5----7-8-7-r--|
E|-0-0-----0-0--0-----0----------------------|
 |
G|---------------------------|----------------------------------------------||
D|---------------------------|----------------------------------------------||
A|---------------------------|----------------------------------------------||
E|-0-r---3-r---2-r---5-r-3-r-|-0--0-0-0--3--3-3-3--2--2-2-2--5--5-5--3--3-3-||

Verse 1 x8
G|----------------------------||
D|----------------------------||
A|----------------------------||
E|-0-0--0--0--0--0-0--0--0--0-||

Chorus x2
G|---------------------------------------------------------------------------||
D|---------------------------------------------------------------------------||
A|---------------------------------------------------------------------------||
E|-0-0-0-0-0-0-0-0-0-0-0-0-0-0-0-0-0-0-0-0-0-0-0-0-0-0-0-0-0-0-0-0-0-0-0-0-0-||

Verse 2 x8
G|----------------------------||
D|----------------------------||
A|----------------------------||
E|-0-0--0--0--0--0-0--0--0--0-||

Chorus x2
G|---------------------------------------------------------------------------||
D|---------------------------------------------------------------------------||
A|---------------------------------------------------------------------------||
E|-0-0-0-0-0-0-0-0-0-0-0-0-0-0-0-0-0-0-0-0-0-0-0-0-0-0-0-0-0-0-0-0-0-0-0-0-0-||

Solo x2
G|-------------------------------------|-------------------------------------||
D|-------------------------------------|-------------------------------------||
A|---------------5--8------------------|-5-5555-5-5555-5--8------------------||
E|-0--00-3--0--0-------0--00-3--0--0-3-|---------------------0--00-3--0--0-3-||

Verse 3 x8
G|----------------------------||
D|----------------------------||
A|----------------------------||
E|-0-0--0--0--0--0-0--0--0--0-||

Chorus x2
G|---------------------------------------------------------------------------||
D|---------------------------------------------------------------------------||
A|---------------------------------------------------------------------------||
E|-0-0-0-0-0-0-0-0-0-0-0-0-0-0-0-0-0-0-0-0-0-0-0-0-0-0-0-0-0-0-0-0-0-0-0-0-0-||

Outro 
G|-------------------------------------------||X4 G|--------||
D|-------------------------------------------||   D|--------||
A|------7----------7---7--5--5-5----7-8-7-r--||   A|--------||
E|-0-0-----0-0--0-----0----------------------||   E|--0-r---||
  development and support by
dmitry ivanov