rock
 
|tablatures   |lyrics   |discussion forums   |more tabs @ XGuitar.com

Iced Earth tabs

Iced Earth bass tab

ICED EARTH
Iced Earth
from Iced Earth by Schaffer
Transcribed By Zac Schaffer (WickedEarth@IronMaiden.com)

FIND EVERY ICED EARTH SONG AND
THE MOST UPDATED VERSION OF THIS SONG AT:

                          The Frozen Palace
                  http://abysslord.com/icedearth/

PLEASE DO NOT COPY THIS TAB TO ANOTHER SITE
WITHOUT AUTHORS' PERMISSION.  THANK YOU.

Standard Tuning

Intro x2
G|------------------------------------------------||
D|------------------------------------------------||
A|------------------------------------------------||
E|-2------------------------2---------------------||

Riff 1 x2
G|----------------------------------------|-------------------------------------------||
D|----------------------------------------|-------------------------------------------||
A|----------------------------------------|-------------------------------------------||
E|-2-22--7-8-8-888-888-8-888-8-88888-8-7-5|2-22-3-2-22-2-2-22-2-22-2-2-2-2-2-2-3p2p0--||


Verse 1 x4
G|----------------------------------------|-------------------------------------------||
D|----------------------------------------|-------------------------------------------||
A|----------------------------------------|-------------------------------------------||
E|-2-22--7-8-8-888-888-8-888-8-88888-8-7-5|2-22-3-2-22-2-2-22-2-22-2-2-2-2222--2-3p2p0||

Verse 2 x4
G|-------------------|------------------||
D|-------------------|------------------||
A|-------------------|------------------||
E|-2--2--2--2--2-0-2-|-2--2--2--0-2-3-2-||
     "Cant You See This Barren Land"

Verse 3 x4
G|----------------------------------------|-------------------------------------------||
D|----------------------------------------|-------------------------------------------||
A|----------------------------------------|-------------------------------------------||
E|-2-22--7-8-8-888-888-8-888-8-88888-8-7-5|2-22-3-2-22-2-2-22-2-22-2-2-2-2-2-2-3p2p0--||

Riff 2 x4
G|--------------------------------------------------||
D|--------------------------------------7-------9---||
A|------------------------------------5-------7-----||
E|-2r-22-r--4-r-44----0-r-00--------5-------7-------||

Verse 5 x4
G|------------------------------------------------------||
D|-----------------------------------------7----------9-||
A|---------------------------------------5----------7---||
E|-222---444----000------------------555-------777------||
              "We Are Together Now"

Riff 3                                                                     X2|
G|--------------------------------------|------------------------------------|-----||
D|--------------------------------------|------------------------------------|-----||
A|----4-5-4--4-5-4------2-3-5-3-2-------|----4-5-4--4-5-4-2------------------|-----||
E|-2---------------3--3-----------5-3-0-|-2------------------5-3-2-5-3-2-5-3-|-2-r-||





Pre-Riff 4                                                        
G|-------------------------------------------------------------|
D|-------------------------------------------------------------|
A|-------------------------------------------------------------|
E|---------------------------------------------------------0-0-|
 |
G|-------------------------------------------------------------||
D|-------------------------------------------------------------||
A|---------------4---------------5---------------4-------------||
E|-2-------------------------------------------------------0-0-||

Riff 4                                                       
G|------------------------------------------------------------|X2
D|------------------------------------------------------------|
A|---------------4---------------5---------------4------------|
E|-2-222-222-222---2-2-2-222-222---2-2-2-222-222---2-2-2--0-0-|
 |
G|------------------------------------------------------------||X2
D|------------------------------------------------------------||
A|---------------7---------------8---------------7------------||
E|-5-555-555-555---5-5-5-555-555---5-5-5-555-555---5-5-5--3-3-||

Riff 5 x2                                                        
G|------------------------------------------------------------||
D|-------------------3p2p0------------------------------------||
A|-------------------------3p2p0------------------------------||
E|-1-1-111-331-0-0-0-------------1-1-111-331-0--0-0-0-0--0-0--||

Riff 6 x2
G|----------------------------------------------------------|
D|----------------------------------------------------------|
A|-------------3-3-3-333-333-0-------------2--2-5-3-2-------|
E|-0-0-000-000-----------------0-0-000-000------------5-3-2-|
 |
G|---------------------------------------------------||
D|---------------------------------------------------||
A|------------------------------------5-3-0-3-2------||
E|-0-0-000-000-3-3-3-3-3-3-0-2-2-2-2----------0--0-0-||

Solo 1 x2
G|-------------------------------------------------------|
D|-------------------------------------------------------|
A|-------------3-3-3-333-333-0-------------2-2-2-222-222-|
E|-0-0-000-000-----------------0-0-000-000---------------|
 |
G|------------------------------------------------||
D|------------------------------------------------||
A|--------------------------------------5-3-0-3---||
E|-0-0-000-000-3-3-3-3-3-3-3-0-2-2-2-2----------0-||

Riff 7 x2
G|-------------------------------------------------|
D|-------------------------------------------------|
A|-------4-----------2-----------4-----------2-----|
E|-2-222---2-2-3-333---3-3-2-222---2-2-3-333---3-3-|
 |
G|-------------------------------------------------||
D|-------------------------------------------------||
A|-------5-----------3-----------5-----------3-----||
E|-3-333---3-3-4-444---4-4-3-333---3-3-4-444---4-4-||



Riff 8
G|---------------------------------|---------------------------------|
D|---------------------------------|---------------------------------|
A|---------------------------------|-6--r----------------------------|
E|-0--r----------------------------|---------------------------------|
 |
G|---------------------------------|---------------------------------||
D|---------------------------------|---------------------------------||
A|---------------------------------|-6-----6-----6-------------------||
E|-0--r----------------------------|---------------------------------||

Verse 6 x4
G|----------------------------------------|-------------------------------------------||
D|----------------------------------------|-------------------------------------------||
A|----------------------------------------|-------------------------------------------||
E|-2-22--7-8-8-888-888-8-888-8-88888-8-7-5|2-22-3-2-22-2-2-22-2-22-2-2-2-2222--2-3p2p0||

Solo x4
G|--------------------------------------||
D|--------------------------------------||
A|------2-3-333-3-3-2-------------------||
E|-2-22---------------2-22-3-2-222-2-22-||

Ending                                X3|
G|--------------------------------------|----------------------------------||
D|--------------------------------------|----------------------------------||
A|------2-3-333-3-3-2-------------------|------2-3-333-3-3-2-----------r---||
E|-2-22---------------2-22-3-2-222-2-22-|-2-22---------------2-22-3-2------||

  development and support by
dmitry ivanov