rock
 
|tablatures   |lyrics   |discussion forums   |more tabs @ XGuitar.com

Iced Earth tabs

I Died for You guitar tab

Iced Earth:  I Died For You

transcribed by:  Russ Elton (webmaster@abysslord.com)
                 Mika Ristiranta (m_ristiranta@hotmail.com)
      solos by:  Jack Beard (jackbeard@hotmail.com)
                 Rob Steinway (shaded_enmity@hotmail.com)
                 slaytanic_gr@yahoo.com -- http://www.metalprovider.com/sdanakos 

FIND EVERY ICED EARTH SONG AND
THE MOST UPDATED VERSION OF THIS SONG AT:

                          The Frozen Palace
                  http://abysslord.com/icedearth/

Date last modified:  April 28, 2003
  
PLEASE DO NOT COPY THIS TAB TO ANOTHER SITE 
WITHOUT AUTHORS' PERMISSION.  THANK YOU.

Tuning: Eb

Riff 1 (Clean)
eb|----------------------------------|
Bb|----------------------------------|
Gb|-----0-----0-------------0--------|
Db|---2-----2------------4-----4---4-|
Ab|--------------------5---------5---|
Eb|-0-----0--------------------------|
   "I can't believe..."


Riff 2 (Distortion, studio version) 
eb|------------------------------------|
Bb|------------------------------------|
Gb|------------------------------------|
Db|------5----4-5-------------5----4-4-|
Ab|-7----7----5-7--------7----7----5-5-|
Eb|-0-00---00------------0-00---00-----|
      **   **              **   ** 
   "Oh how I love you..."

Here's the live version:
eb|------------------------------------|
Bb|------------------------------------|
Gb|------------------------------------|
Db|------5----4-9-------------5----4-4-|
Ab|-7----7----5-7--------7----7----5-5-|
Eb|-0-00---00------------0-00---00-----|
      **   **              **   ** 


Play Riff 1   "The pain was just..."

Guitar fills over Riff 1:
Guitar 2
eb|--------------------------------|
Bb|-12--10\8--8----10--12--10------|
Gb|-----------------------------11-|
Db|--------------------------------|
Ab|--------------------------------|
Eb|--------------------------------|

Guitar 3
eb|---------------------------|
Bb|-8--7\5--5----7--8--7------|
Gb|-------------------------7-|
Db|---------------------------|
Ab|---------------------------|
Eb|---------------------------|


Play Riff 2    "Oh how I love you..."
Play Riff 2    Solo Rhythm

Song fades out with riff 2.

Solo (Both guitars displayed in entirety sequentially)
Guitar 1
eb|---------------------|
Bb|-20b22r20-19-20-17~--|
Gb|---------------------| --------------|
Db|---------------------|               |
Ab|---------------------|               |
Eb|---------------------|               |
                                        |--> Play 2x
eb|------------------------------|      |
Bb|-20b22r20-19-20-15~-----------|      |
Gb|---------------------17-16-17-|      |
Db|------------------------------| -----|
Ab|------------------------------|
Eb|------------------------------|

eb|----------------------------|
Bb|-20-19-20-17~--20-19-15-----|
Gb|------------------------16~-| ------|
Db|----------------------------|       |
Ab|----------------------------|       |
Eb|----------------------------|       |
                                       |--> Play 4x
eb|---------------------------|        |
Bb|-15-17-19-15---------------|        |
Gb|--------------16-14-16-14--|        |
Db|---------------------------| -------|
Ab|---------------------------|
Eb|---------------------------|

eb|-19--------17------19-19----20--------17------------|
Bb|----171717----1717-------17----171717----1717-20-17-|
Gb|----------------------------------------------------| ---|
Db|----------------------------------------------------|    |
Ab|----------------------------------------------------|    |
Eb|----------------------------------------------------|    |
                                                            |--> Play til
eb|-----------------------------|                           |--> fade out
Bb|-20\19~----20-22----20-22-19-|                           |
Gb|-----------------------------|                           |
Db|-----------------------------| --------------------------|
Ab|-----------------------------|
Eb|-----------------------------|


Guitar 2
eb|-19b20r19-17-19-15~--|
Bb|---------------------|
Gb|---------------------| ------------|
Db|---------------------|             |
Ab|---------------------|             |
Eb|---------------------|             |
                                      |--> Play 2x
eb|-19b20r19-17-19-14~-----------|    |
Bb|---------------------17-15-17-|    |
Gb|------------------------------|    |
Db|------------------------------| ---|
Ab|------------------------------|
Eb|------------------------------|

eb|-19-17-19-15~--19-17-14-----|
Bb|------------------------15~-|
Gb|----------------------------| -----|
Db|----------------------------|      |
Ab|----------------------------|      |
Eb|----------------------------|      |
                                      |--> Play 4x
eb|-14-15-17-14---------------|       |
Bb|--------------15-13-15-13--|       |
Gb|---------------------------|       |
Db|---------------------------| ------|
Ab|---------------------------|
Eb|---------------------------|

eb|-22--------20------22-22----24--------20------19----|
Bb|----202020----2020-------20----202020----2020----20-|
Gb|----------------------------------------------------| --|
Db|----------------------------------------------------|   |
Ab|----------------------------------------------------|   |
Eb|----------------------------------------------------|   |
                                                           |--> Play til
eb|-19\17~----19-20----19-20-17-|                          |--> fadeout
Bb|-----------------------------|                          |
Gb|-----------------------------|                          |
Db|-----------------------------| -------------------------|
Ab|-----------------------------|
Eb|-----------------------------|


Notation:

10^        = bend a quarter step.
10b11      = bend a half step.
10b12      = bend a full step.
10b12r10   = bend and release.
[10]12     = pre-bend.
[10]12r10  = pre-bend and release.
{14}       = pick the 14th fret while holding the most 
             previous bend.
<17>       = touch the string above the 17th fret while 
             previous note(s) is(are) still ringing.

10b13*     = tremolo bar bend, from the 10th fret to the 13th fret.
7d4*       = tremolo bar dive, from the 7th fret to the 4th fret. 
12~*       = tremolo bar vibrato.

x   =  mute with fret-hand
*   =  palm mute
X\\ =  pick slide
h   =  hammer-on
p   =  pull-off
~   =  vibrato
t   =  finger tap
/   =  slide up
\   =  slide down
h.  =  natural harmonics
a   =  artificial harmonics
(9) =  ghost note
tm  =  trem picking
tr  =  trill
  development and support by
dmitry ivanov