rock
 
|tablatures   |lyrics   |discussion forums   |more tabs @ XGuitar.com

Iced Earth tabs

Hold at All Costs bass tab

Iced Earth-Hold At All Costs

tuning is Eb

tabed by Frank Terry

FIND EVERY ICED EARTH SONG AND
THE MOST UPDATED VERSION OF THIS SONG AT:

                          The Frozen Palace
                  http://abysslord.com/icedearth/

PLEASE DO NOT COPY THIS TAB TO ANOTHER SITE 
WITHOUT AUTHORS' PERMISSION.  THANK YOU.

if you have any questions or comments, direct them to thejaper58@hotmail.com

The timing probably isnt the greatest on here, but the notes are correct, 
listen to the
song for exact ryhthem and for how long to hold each note.

intro
Just a mile or so away...
G|----------------------------------------------------|
D|----------------------------------------------------|
A|0-----0-----------3---------------------------------|
E|------------1------3-2-1----------------------------|

verse

G|----------------------------------------------------|
D|----------------------------------------------------|
A|0000000000000-3-0-000000000000-3-0------------------|
E|---------------3--------------3---------------------|


G|----------------------------------------------------|
D|----------------------------------------------------|
A|-------------3-0------------------------------------|
E|111111111111--3-------------------------------------|
chorus

G|----------------------------------------------------|
D|----------------------------------------------------|
A|000000------33333-----------------------------------|
E|-------1111--------33333----------------------------|
Bridge, repeat through the whole bridge

G|----------------------------------------------------|
D|----------------------------------------------------|
A|0000000000000000----------33333333------------------|
E|-----------------1111111111--33333333333-11111111111|

verse
G|----------------------------------------------------|
D|----------------------------------------------------|
A|0000000000000-3-0-------------3-0-------------------|
E|---------------3--11111111111--3--------------------|
-
chorus
G|----------------------------------------------------|
D|----------------------------------------------------|
A|00000000-----------3333333--------------------------|
E|----------11111111---------333333-11111-------------|


  development and support by
dmitry ivanov