rock
 
|tablatures   |lyrics   |discussion forums   |more tabs @ XGuitar.com

Iced Earth tabs

High Water Mark: Cannonade/Intro/The Burden of Command/The Last Full Me bass tab

HIGH WATER MARK (Bassline)
                            As recorded by Iced Earth
           (From the 2004 Album THE GLORIOUS BURDEN (GETTYSBURG 1863))

Words and Music by Jon Schaffer
Arranged by livingzombie & Russ Elton (webmaster@abysslord.com)
Transcribed by livingzombie

Gtr I (Eb Ab Db Gb) - 'Bass'
Gtr II (Eb Ab Db Gb Bb Eb) - 'Strings 1'
Gtr III (Eb Ab Db Gb Bb Eb) - 'Strings 2'

 Intro
 4/4
  Gtr I
  Wx7          H    Q  E S S   W
|------------|---------------|----------|
|------------|---------------|----------|
|------------|-----------7-7-|-7--------|
|------------|---------------|----------|
|
| Gtr II
| Wx7          W               W
|------------|---------------|----------|
|------------|---------------|----------|
|------------|---------------|----------|
|------------|---------------|----------|
|------------|---------------|-7--------|
|------------|---------------|----------|


  +H     Q  Q     W           +H      Q  Q
|--------------|-----------|------------------|
|--------------|-----------|------------------|
|-(7)----7--9--|-10--------|-(10)----10--9----|
|--------------|-----------|------------------|
|
| +H     Q  Q     W           +H      Q  Q
|--------------|-----------|------------------|
|--------------|-----------|------------------|
|--------------|-----------|------------------|
|--------------|-----------|------------------|
|-(7)----7--9--|-10--------|-(10)----10--9----|
|--------------|-----------|------------------|


  W          W          W          +H     Q  Q
|----------|----------|----------|--------------|
|----------|----------|----------|--------------|
|-5--------|-9--------|-7--------|-(7)----7--5--|
|----------|----------|----------|--------------|
|
| W          W          W          +H     Q  Q
|----------|----------|----------|--------------|
|----------|----------|----------|--------------|
|----------|----------|----------|--------------|
|----------|----------|----------|--------------|
|-5--------|-9--------|-7--------|-(7)----7--5--|
|----------|----------|----------|--------------|


  W          +H     Q  Q    W          H    H
|----------|--------------|----------|-----------|
|----------|--------------|----------|-----------|
|-3--------|-(3)----3--7--|-5--------|-----------|
|----------|--------------|----------|-3----5----|
|
| W          +H     Q  Q    W          H    H
|----------|--------------|----------|-----------|
|----------|--------------|----------|-----------|
|----------|--------------|----------|-----------|
|----------|--------------|----------|-----------|
|-3--------|-(3)----3--7--|-5--------|-----------|
|----------|--------------|----------|-3----5----|


  W                   +W                  3x
|-----------------||----------------------||
|-----------------||o--------------------o||
|-----------------||o--------------------o||
|-0---------------||--(0)-----------------||
|
| e e e e e e e e      e  e e e e e e e   3x
|-----------------||----------------------||
|-----------------||o--------------------o||
|-9-9-9-9-9-9-9-9-||---9--9-9-9-9-9-9-9---||
|-9-9-9-9-9-9-9-9-||---9--9-9-9-9-9-9-9---||
|-7-7-7-7-7-7-7-7-||o--7--7-7-7-7-7-7-7--o||
|-----------------||----------------------||


  W                 +H         Q   Q      W
|-----------------|--------------------|------------------|
|-----------------|--------------------|------------------|
|-7---------------|-(7)--------7---9---|-10---------------|
|-----------------|--------------------|------------------|
|
| e e e e e e e e    e  e e e  e e e e    e e e e e e e e
|-----------------|--------------------|------------------|
|-----------------|--------------------|------------------|
|-9-9-9-9-9-9-9-9-|--9--9-9-9--9-9-9-9-|--9-9-9-9-9-9-9-9-|
|-9-9-9-9-9-9-9-9-|--9--9-9-9--9-9-9-9-|--9-9-9-9-9-9-9-9-|
|-7-7-7-7-7-7-7-7-|--7--7-7-7--7-7-7-7-|--7-7-7-7-7-7-7-7-|
|-----------------|--------------------|------------------|
|
| Gtr III
| W                  H         H          W
|-----------------|--------------------|------------------|
|-----------------|--------------------|-12---------------|
|-----------------|-11--------12-------|------------------|
|-9---------------|--------------------|------------------|
|-----------------|--------------------|------------------|
|-----------------|--------------------|------------------|


   +H         Q   Q      W
|---------------------|------------------|
|---------------------|------------------|
|-(10)-------10---9---|--5---------------|
|---------------------|------------------|
|
|   e  e e e  e e e e    e e e e e e e e
|---------------------|------------------|
|---------------------|------------------|
|---9--9-9-9--9-9-9-9-|--9-9-9-9-9-9-9-9-|
|---9--9-9-9--9-9-9-9-|--9-9-9-9-9-9-9-9-|
|---7--7-7-7--7-7-7-7-|--7-7-7-7-7-7-7-7-|
|---------------------|------------------|
|
|  +H         H          W
|---------------------|------------------|
|-(12)-------12-------|-10---------------|
|---------------------|------------------|
|---------------------|------------------|
|---------------------|------------------|
|---------------------|------------------|


    W                    W
|---------------------|------------------|
|---------------------|------------------|
|---9-----------------|--7---------------|
|---------------------|------------------|
|
|   e  e e e  e e e e    e e e e e e e e
|---------------------|------------------|
|---------------------|------------------|
|---9--9-9-9--9-9-9-9-|--9-9-9-9-9-9-9-9-|
|---9--9-9-9--9-9-9-9-|--9-9-9-9-9-9-9-9-|
|---7--7-7-7--7-7-7-7-|--7-7-7-7-7-7-7-7-|
|---------------------|------------------|
|
|  +H         H          W
|---------------------|------------------|
|-(10)-------13-------|-12---------------|
|---------------------|------------------|
|---------------------|------------------|
|---------------------|------------------|
|---------------------|------------------|


   +H         Q    Q      W                  +H         Q    Q
|----------------------|------------------|----------------------|
|----------------------|------------------|----------------------|
|--(7)--------7----5---|--3---------------|--(3)--------3----7---|
|----------------------|------------------|----------------------|
|
|   e  e e e  e e  e e    e e e e e e e e     e  e e e  e e  e e
|----------------------|------------------|----------------------|
|----------------------|------------------|----------------------|
|---9--9-9-9--9-9--9-9-|--9-9-9-9-9-9-9-9-|---9--9-9-9--9-9--9-9-|
|---9--9-9-9--9-9--9-9-|--9-9-9-9-9-9-9-9-|---9--9-9-9--9-9--9-9-|
|---7--7-7-7--7-7--7-7-|--7-7-7-7-7-7-7-7-|---7--7-7-7--7-7--7-7-|
|----------------------|------------------|----------------------|
|
|  +H         Q    Q      W                  +H         Q    Q
|------------12---10---|------------------|----------------------|
|-(12)-----------------|-13---------------|-(13)-------13---12---|
|----------------------|------------------|----------------------|
|----------------------|------------------|----------------------|
|----------------------|------------------|----------------------|
|----------------------|------------------|----------------------|


   W                        H        H
|------------------------|------------------------|
|------------------------|------------------------|
|--5---------------------|------------------------|
|------------------------|--3--------5------------|
|
|  e e e e   e  e   e  e    e e e e  e e   e   e
|------------------------|------------------------|
|------------------------|------------------------|
|--9-9-9-9---9--9---9--9-|--9-9-9-9--9-9---9---9--|
|--9-9-9-9---9--9---9--9-|--9-9-9-9--9-9---9---9--|
|--7-7-7-7---7--7---7--7-|--7-7-7-7--7-7---7---7--|
|------------------------|------------------------|
|
|  H        +Q     +E  E    H        Q    +E   E
|------------------------|------------------------|
|-10-------(10)---(10)-8-|-10-------12---(12)-13--|
|------------------------|-11--------9----(9)-(9)-|
|------------------------|------------------------|
|------------------------|------------------------|
|------------------------|------------------------|


   W                    +W                 3x
|------------------||----------------------||
|------------------||o--------------------o||
|------------------||o--------------------o||
|--0---------------||---(0)----------------||
|
|  e e e e e e e e       e  e e e e e e e  3x
|------------------||----------------------||
|------------------||o--------------------o||
|--9-9-9-9-9-9-9-9-||----9--9-9-9-9-9-9-9--||
|--9-9-9-9-9-9-9-9-||----9--9-9-9-9-9-9-9--||
|--7-7-7-7-7-7-7-7-||o---7--7-7-7-7-7-7-7-o||
|------------------||----------------------||
|
|  W                    +W                 3x
|------------------||----------------------||
|-12---------------||o-(12)---------------o||
|-12---------------||--(12)----------------||
|------------------||----------------------||
|------------------||o--------------------o||
|------------------||----------------------||


  W                          +H         Q   Q      W
|--------------------------|--------------------|------------------|
|--------------------------|--------------------|------------------|
|-7------------------------|-(7)--------7---9---|-10---------------|
|--------------------------|--------------------|------------------|
|
| e  e e e e e e e            e  e e e  e e e e    e e e e e e e e
|--------------------------|--------------------|------------------|
|--------------------------|--------------------|------------------|
|-9--9-9-9-9-9-9-9---------|--9--9-9-9--9-9-9-9-|--9-9-9-9-9-9-9-9-|
|-9--9-9-9-9-9-9-9---------|--9--9-9-9--9-9-9-9-|--9-9-9-9-9-9-9-9-|
|-7--7-7-7-7-7-7-7---------|--7--7-7-7--7-7-7-7-|--7-7-7-7-7-7-7-7-|
|--------------------------|--------------------|------------------|
|
| H.           E T.  T.  T    H         H          W
|-------------------12--14-|-15--------17-------|-19---------------|
|--------------------------|--------------------|------------------|
|--------------------------|--------------------|------------------|
|--------------------------|--------------------|------------------|
|--------------------------|--------------------|------------------|
|--------------------------|--------------------|------------------|


   +H          Q      Q           W
|------------------------------|------------------|
|------------------------------|------------------|
|-(10)--------10------9--------|--5---------------|
|------------------------------|------------------|
|
|   e  e e e   e  e   e   e       e e e e e e e e
|------------------------------|------------------|
|------------------------------|------------------|
|---9--9-9-9---9--9---9---9----|--9-9-9-9-9-9-9-9-|
|---9--9-9-9---9--9---9---9----|--9-9-9-9-9-9-9-9-|
|---7--7-7-7---7--7---7---7----|--7-7-7-7-7-7-7-7-|
|------------------------------|------------------|
|
|  +H         +Q     +E   S  S    W
|-(19)-------(19)---(19)-17-15-|-17---------------|
|------------------------------|------------------|
|------------------------------|------------------|
|------------------------------|-17---------------|
|------------------------------|------------------|
|------------------------------|------------------|


   W                   W                  +H         Q       Q
|-------------------|------------------|----------------------------|
|-------------------|------------------|----------------------------|
|--9----------------|--7---------------|--(7)--------7-------5------|
|-------------------|------------------|----------------------------|
|
|  e e e e  e e e e    e e e e e e e e     e  e e e  e   e   e   e
|-------------------|------------------|----------------------------|
|-------------------|------------------|----------------------------|
|--9-9-9-9--9-9-9-9-|--9-9-9-9-9-9-9-9-|---9--9-9-9--9---9---9---9--|
|--9-9-9-9--9-9-9-9-|--9-9-9-9-9-9-9-9-|---9--9-9-9--9---9---9---9--|
|--7-7-7-7--7-7-7-7-|--7-7-7-7-7-7-7-7-|---7--7-7-7--7---7---7---7--|
|-------------------|------------------|----------------------------|
|
|  H        H          W                  +H         E   E   E   E
|-22-------20-------|-19---------------|-(19)-------24--22--20--19--|
|-------------------|------------------|----------------------------|
|----------17-------|------------------|--------------------19-(19)-|
|-16----------------|-17---------------|-(17)-------17-(17)---------|
|-------------------|------------------|----------------------------|
|-------------------|------------------|----------------------------|


   W                  +H          Q     Q
|------------------|---------------------------|
|------------------|---------------------------|
|--3---------------|--(3)---------3-----7------|
|------------------|---------------------------|
|
|  e e e e e e e e     e  e e e   e  e  e   e
|------------------|---------------------------|
|------------------|---------------------------|
|--9-9-9-9-9-9-9-9-|---9--9-9-9---9--9--9---9--|
|--9-9-9-9-9-9-9-9-|---9--9-9-9---9--9--9---9--|
|--7-7-7-7-7-7-7-7-|---7--7-7-7---7--7--7---7--|
|------------------|---------------------------|
|
|  W                   H          Q     E   E
|-24---------------|--22---------20----19------|
|------------------|-----------------------20--|
|-17---------------|-(17)-------(17)---21-(21)-|
|------------------|---------------------------|
|------------------|---------------------------|
|------------------|---------------------------|


   W                         H        H              W
|-------------------------|-----------------------|------------------|
|-------------------------|-----------------------|------------------|
|--5----------------------|-----------------------|------------------|
|-------------------------|--3--------5-----------|--0---------------|
|
|  e e e e   e  e   e   e    e e e e  e e   e   e    e e e e e e e e
|-------------------------|-----------------------|------------------|
|-------------------------|-----------------------|------------------|
|--9-9-9-9---9--9---9---9-|--9-9-9-9--9-9---9---9-|--9-9-9-9-9-9-9-9-|
|--9-9-9-9---9--9---9---9-|--9-9-9-9--9-9---9---9-|--9-9-9-9-9-9-9-9-|
|--7-7-7-7---7--7---7---7-|--7-7-7-7--7-7---7---7-|--7-7-7-7-7-7-7-7-|
|-------------------------|-----------------------|------------------|
|
|  H        +Q     +E   E    H        Q    +E   E    W
|-17-------(17)---(17)-15-|-14--------------------|------------------|
|-------------------------|----------24---(24)-22-|-20---------------|
|-19-------(19)---(19)----|----------19---(19)-17-|-16---------------|
|-------------------------|----------21---(21)-19-|-17---------------|
|-------------------------|-----------------------|------------------|
|-------------------------|-----------------------|------------------|


   +W                           +W                     +W                  5x
|-----------------------------|-------------------||-----------------------||
|-----------------------------|-------------------||o---------------------o||
|-----------------------------|-------------------||o---------------------o||
|--(0)------------------------|-(0)---------------||---(0)-----------------||
|
|   e  e e e   e  e   e    e     e  e e e e e e e       e  e e e e e e e   5x
|-----------------------------|-------------------||-----------------------||
|-----------------------------|-------------------||o---------------------o||
|---9--9-9-9---9--9---9----9--|--9--9-9-9-9-9-9-9-||----9--9-9-9-9-9-9-9---||
|---9--9-9-9---9--9---9----9--|--9--9-9-9-9-9-9-9-||----9--9-9-9-9-9-9-9---||
|---7--7-7-7---7--7---7----7--|--7--7-7-7-7-7-7-7-||o---7--7-7-7-7-7-7-7--o||
|-----------------------------|-------------------||-----------------------||
|
|  +H         +Q      E    E     W                     +W                  5x
|-----------------------------|-------------------||-----------------------||
|-(20)-------(20)---(20)-(20)-|-20----------------||o-(20)----------------o||
|-(16)-------(16)---(16)-(16)-|-------------------||-----------------------||
|-(17)-------(17)----17---19--|-21----------------||--(21)-----------------||
|-----------------------------|-------------------||o---------------------o||
|-----------------------------|-------------------||-----------------------||


 Verse
  W          +W           +W           +W
|----------|------------|------------|--------|
|----------|------------|------------|--------|
|----------|------------|------------|--------|
|-0--------|-(0)--------|-(0)--------|-(0)----|
|
| W          +W           +W           +W
|----------|------------|------------|--------|
|----------|------------|------------|--------|
|----------|------------|------------|--------|
|----------|------------|------------|--------|
|-7--------|-(7)--------|-(7)--------|-(7)----|
|----------|------------|------------|--------|


  Gtr II
  +W           +W           +W           +W
|------------|------------|------------|--------|
|------------|------------|------------|--------|
|------------|------------|------------|--------|
|------------|------------|------------|--------|
|-(7)--------|-(7)--------|-(7)--------|-(7)----|
|------------|------------|------------|--------|


  +W            W            W            W
|------------|------------|------------|--------|
|------------|------------|------------|--------|
|------------|------------|------------|--------|
|------------|------------|------------|--------|
|-(7)--------|-(7)--------|-(7)--------|-(7)----|
|------------|-10---------|--9---------|--8-----|


   W            W            W            W
|------------|------------|------------|--------|
|------------|------------|------------|--------|
|--9---------|-11---------|-12---------|-14-----|
|------------|------------|------------|--------|
|-(7)--------|-(7)--------|-(7)--------|-(7)----|
|------------|-10---------|--9---------|--8-----|


  q.   q.   Q    +W           q.   q.   Q    +W
|--------------|------------|--------------|--------|
|------7----8--|-(8)--------|-8----7----8--|-(8)----|
|-9----7----5--|-(5)--------|-5----7----9--|-(9)----|
|--------------|------------|-----------9--|-(9)----|
|--------------|------------|--------------|--------|
|--------------|------------|--------------|--------|


  q.   q.   Q    +W           q.   q.   Q    +W
|--------------|------------|------5----7--|-(7)----|
|-8----7----8--|-(8)--------|-8----7----8--|-(8)----|
|-9----7----5--|-(5)--------|-5----7----9--|-(9)----|
|--------------|------------|-----------9--|-(9)----|
|--------------|------------|--------------|--------|
|--------------|------------|--------------|--------|


  Gtr II
  W                    +W
|--------------------|-----------------------|
|--------------------|-----------------------|
|--------------------|-----------------------|
|--------------------|-----------------------|
|-7------------------|-(7)-------------------|
|--------------------|-----------------------|
|
| Gtr III
| E  e  e e  e  e q     E   e  e e  e  e  q
|--------------------|-----------------------|
|--------------------|-----------------------|
|---12-11-9-12-11-9--|-----12-11-9-14-12-11--|
|--------------------|-----------------------|
|--------------------|-----------------------|
|--------------------|-----------------------|


  +W                     +W
|----------------------|-----------------------|
|----------------------|-----------------------|
|----------------------|-----------------------|
|----------------------|-----------------------|
|-(7)------------------|-(7)-------------------|
|----------------------|-----------------------|
|
|  E   e  e e  e  e q     E   e  e e  e  e  q
|----------------------|-----------------------|
|----------------------|-----------------------|
|-----12-11-9-12-11-9--|-----12-11-9-14-12-11--|
|----------------------|-----------------------|
|----------------------|-----------------------|
|----------------------|-----------------------|


  +W                       +W
|------------------------|------------------------|
|------------------------|------------------------|
|------------------------|------------------------|
|------------------------|------------------------|
|-(7)--------------------|-(7)--------------------|
|------------------------|------------------------|
|
|  E   e  e  e  e  e  q     E   e  e  e  e  e  q
|-----15-14-12-15-14-12--|-----15-14-12-17-15-14--|
|------------------------|------------------------|
|-----12-11--9-12-11--9--|-----12-11--9-14-12-11--|
|------------------------|------------------------|
|------------------------|------------------------|
|------------------------|------------------------|


  +W                       +W
|------------------------|------------------------|
|------------------------|------------------------|
|------------------------|------------------------|
|------------------------|------------------------|
|-(7)--------------------|-(7)--------------------|
|------------------------|------------------------|
|
|  E   e  e  e  e  e  q     E   e  e  e  e  e  q
|-----15-14-12-15-14-12--|-----15-14-12-17-15-14--|
|------------------------|------------------------|
|-----12-11--9-12-11--9--|-----12-11--9-14-12-11--|
|------------------------|------------------------|
|------------------------|------------------------|
|------------------------|------------------------|


   +W                        W
|-------------------------|------------------------|
|-------------------------|------------------------|
|-------------------------|------------------------|
|-------------------------|------------------------|
|--(7)--------------------|-(7)--------------------|
|-------------------------|-10---------------------|
|
|   e   e  e  e  e  e  q     e   e  e  e  e  e  q
|-(12)-15-14-12-15-14-12--|-12--15-14-12-17-15-14--|
|-------------------------|------------------------|
|--(9)-12-11--9-12-11--9--|--9--12-11--9-14-12-11--|
|-------------------------|------------------------|
|-------------------------|------------------------|
|-------------------------|------------------------|


   W                        W
|------------------------|------------------------|
|------------------------|------------------------|
|------------------------|------------------------|
|------------------------|------------------------|
|-(7)--------------------|-(7)--------------------|
|--9---------------------|--8---------------------|
|
|  e   e  e  e  e  e  q     e   e  e  e  e  e  q
|-12--15-14-12-15-14-12--|-12--15-14-12-17-15-14--|
|------------------------|------------------------|
|--9--12-11--9-12-11--9--|--9--12-11--9-14-12-11--|
|------------------------|------------------------|
|------------------------|------------------------|
|------------------------|------------------------|


  +W                       +W
|------------------------|------------------------|
|------------------------|------------------------|
|------------------------|------------------------|
|------------------------|------------------------|
|-(7)--------------------|-(7)--------------------|
|------------------------|------------------------|
|
|  e   e  e  e  e  e  q     e   e  e  e  e  e  q
|-12--15-14-12-15-14-12--|-12--15-14-12-17-15-14--|
|-----15-13-12-15-13-12--|-----15-13-12-17-15-13--|
|--9--12-11--9-12-11--9--|--9--12-11--9-14-12-11--|
|------------------------|------------------------|
|------------------------|------------------------|
|------------------------|------------------------|


  +W                       +W
|------------------------|------------------------|
|------------------------|------------------------|
|------------------------|------------------------|
|------------------------|------------------------|
|-(7)--------------------|-(7)--------------------|
|------------------------|------------------------|
|
|  e   e  e  e  e  e  q     e   e  e  e  e  e  q
|-12--15-14-12-15-14-12--|-12--15-14-12-17-15-14--|
|-----15-13-12-15-13-12--|-----15-13-12-17-15-13--|
|--9--12-11--9-12-11--9--|--9--12-11--9-14-12-11--|
|------------------------|------------------------|
|------------------------|------------------------|
|------------------------|------------------------|


     Q.    Q.    Q     +W
||--12----10-----8--|--(8)----------------|
||o--8-----7-----8--|--(8)----------------|
||---9-----7-----9--|--(9)----------------|
||--------------10--|-(10)----------------|
||o-----------------|---------------------|
||------------------|---------------------|
|
|    W                  Q    e  e  Q   Q
||------------------|---------------------|
||o-----------------|---------------------|
||------------------|---------------------|
||------------------|-------12-14-15--14--|
||o-----------------|---------------------|
||------------------|---------------------|


 1.                                      2.
  Q.   Q.   Q    +W                       Q.   q  e  Q
|--------------|-----------------------||-----------24----|
|-8----7----8--|-(8)------------------o||-8----7----12----|
|-5----7----9--|-(9)-------------------||-5----7--9--9----|
|--------------|-----------------------||-----------------|
|--------------|----------------------o||-----------------|
|--------------|-----------------------||-----------------|
|
| W               E   e  e  e  Q   Q      W
|--------------|-----------------------||-----------------|
|--------------|----------------------o||-----------------|
|--------------|-----------------------||-----------------|
|--------------|-----17-15-14-15--14---||-----------------|
|--------------|----------------------o||-----------------|
|--------------|-----------------------||-----------------|


   W            W             W             W
|-24--------|--19---------|--17---------|--15-----|
|-12--------|-(12)--------|-(12)--------|-(12)----|
|--9--------|--(9)--------|---7---------|---9-----|
|-----------|-------------|-------------|---------|
|--7--------|--(7)--------|---5---------|---7-----|
|-----------|-------------|-------------|---------|


 Bridge
  Gtr I
  q  H    E E    q   H.             q     H     E E    q   Q  E E E E
|-------------|------------------|------------------|-----------------|
|-------------|------------------|------------------|-----------------|
|-------------|------------------|------------------|---------5-7---9-|
|-0---------0-|--0---------------|--0-------------0-|--0--------------|
|
| Gtr II
| W             +H       E E E E   +E  E +H.          +H      E E E E
|-------------|------------------|------------------|-----------------|
|-------------|------------------|------------------|-----------------|
|-------------|----------4-2---2-|-(2)--------------|-----------------|
|-5-----------|-(5)------5-4-5-4-|-(4)-4-(4)--------|-(4)-----4-5---7-|
|-7-----------|-(7)----------7---|-----5-(5)--------|-(5)-----5-7---9-|
|-------------|------------------|------------------|-----------------|


    E E E  E q  Q     q   H      E E    q     H.         q   Q  E E E E
||-----------------|-----------------|----------------|-------------------||
||o----------------|-----------------|----------------|------------------o||
||o---5-7----------|-----------------|----------------|---------5-7---9--o||
||---------0-0-----|--0------------0-|--0-------------|--0----------------||
|
|   E E H.           +H      E E E E   +E  E +H.        +H      E E E E
||-----------------|-----------------|----------------|-------------------||
||o----------------|-----------------|----------------|------------------o||
||-----------------|---------4-2---2-|-(2)------------|-------------------||
||----4-5----------|-(5)-----5-4-5-4-|-(4)-4-(4)------|-(4)-----4-5---7---||
||o---5-7----------|-(7)---------7---|-----5-(5)------|-(5)-----5-7---9--o||
||-----------------|-----------------|----------------|-------------------||


  E E E  S S E Q  S S    E  Q  S S E Q   S S
|---------------------|----------------------|
|---------------------|----------------------|
|---5-7---------------|----------------------|
|--------0-0-0----0-0-|--0-----0-0-0-----0-0-|
|
| E E H.                +H         E E E E
|---------------------|----------------------|
|---------------------|----------------------|
|---------------------|------------4-2---2---|
|---4-5---------------|-(5)--------5-4-5-4---|
|---5-7---------------|-(7)------------7-----|
|---------------------|----------------------|


   E  Q     S S E Q  S S    E  Q  S S E Q   S S
|------------------------|-----------------------|
|------------------------|-----------------------|
|------------------------|-----------------------|
|--0--------0-0-0----0-0-|--0-----0-0-0-----0-0--|
|
| +E  E +H.                +H         E E E E
|------------------------|-----------------------|
|------------------------|-----------------------|
|-(2)--------------------|-----------------------|
|-(4)-4-(4)--------------|-(4)--------4-5---7----|
|-----5-(5)--------------|-(5)--------5-7---9----|
|------------------------|-----------------------|


  E Q    S S E E E S S    E  E E S S E E E S S
|----------------------|-----------------------|
|----------------------|-----------------------|
|----------------------|-----------------------|
|-0------0-0-0-0-0-0-0-|--0--0-0-0-0-0-0-0-0-0-|
|
| E E H.                 +H          E E E E
|----------------------|-----------------------|
|----------------------|-----------------------|
|----------------------|-------------4-2---2---|
|---4-5----------------|-(5)---------5-4-5-4---|
|---5-7----------------|-(7)-------------7-----|
|----------------------|-----------------------|


   E  E  E  S S E E E S S    E  E E S S E E E S S
|-------------------------|------------------------|
|-------------------------|------------------------|
|-------------------------|------------------------|
|--0--0--0--0-0-0-0-0-0-0-|--0--0-0-0-0-0-0-0-0-0--|
|
| +E  E +H.                 +H          E E E E
|-------------------------|------------------------|
|-------------------------|------------------------|
|-(2)---------------------|------------------------|
|-(4)-4-(4)---------------|-(4)---------4-5---7----|
|-----5-(5)---------------|-(5)---------5-7---9----|
|-------------------------|------------------------|


  E E E  S S E E E S S    E  E E S S E E E S S
|----------------------|-----------------------|
|----------------------|-----------------------|
|----------------------|-----------------------|
|-0-0-0--0-0-0-0-0-0-0-|--0--0-0-0-0-0-0-0-0-0-|
|
| E E H.                 +W
|----------------------|-----------------------|
|----------------------|-----------------------|
|----------------------|-----------------------|
|---4-5----------------|-(5)-------------------|
|---5-7----------------|-(7)-------------------|
|----------------------|-----------------------|


   E  E E S S E E E S S    E  E E S S E E E S S
|-----------------------|------------------------|
|-----------------------|------------------------|
|-----------------------|------------------------|
|--0--0-0-0-0-0-0-0-0-0-|--0--0-0-0-0-0-0-0-0-0--|
|
| +W                      +W
|-----------------------|------------------------|
|-----------------------|------------------------|
|-----------------------|------------------------|
|-(5)-------------------|-(5)--------------------|
|-(7)-------------------|-(7)--------------------|
|-----------------------|------------------------|


 Verse
  $
  E S S E E E E E S S   E S S E E E E E E
|---------------------|-------------------|
|---------------------|-------------------|
|-------7---5-7-------|-------7---5-7---5-|
|-0-0-0---0-----0-0-0-|-0-0-0---0-----0---|
|
| Gtr II
| Q     E E E E Q       Q     E E E E E E
|---------------------|-------------------|
|-------8---7-8-------|-------8---7-8---7-|
|-------9---7-9-------|-------9---7-9---7-|
|---------------------|-------------------|
|---------------------|-------------------|
|---------------------|-------------------|
|
| Gtr III
| W                     W
|---------------------|-------------------|
|---------------------|-------------------|
|---------------------|-------------------|
|---------------------|-------------------|
|---------------------|-------------------|
|---------------------|-------------------|


  E  E E  S S E E  E  S S    E   E  E  S S   E   E  E S S
|-------------------------|---------------------------------|
|-------------------------|---------------------------------|
|----5-3------------------|---------------------------------|
|-0-------0-0-0-0--0--0-0-|--0---0--0--0-0---0---0--0-0-0---|
|
| E  E H.                   +W
|------3------------------|-(3)-----------------------------|
|----7-5------------------|-(5)-----------------------------|
|----7-5------------------|-(5)-----------------------------|
|-------------------------|---------------------------------|
|-------------------------|---------------------------------|
|-------------------------|---------------------------------|
|
| H.               E  E      E   E  E  E    +E   E  Q
|-------------------------|---------------------------------|
|-------------------------|-----------15---(15)-------------|
|-----------------14-16---|-16--14-16-----------16-14-------|
|-------------------------|---------------------------------|
|-------------------------|---------------------------------|
|-------------------------|---------------------------------|


   E S S E E   E  E E S S   E S S E E E E E E
|-------------------------|-------------------|
|-------------------------|-------------------|
|--------7-----5--7-------|-------7---5-7---5-|
|--0-0-0---0--------0-0-0-|-0-0-0---0-----0---|
|
|  Q     E E   E  E Q       Q     E E E E E E
|-------------------------|-------------------|
|--------8-----7--8-------|-------8---7-8---7-|
|--------9-----7--9-------|-------9---7-9---7-|
|-------------------------|-------------------|
|-------------------------|-------------------|
|-------------------------|-------------------|
|
|              >
|  H          +H            W
|-------------------------|-------------------|
|-------------------------|-------------------|
|-16---------(16)---------|-------------------|
|-------------------------|-------------------|
|-------------------------|-------------------|
|-------------------------|-------------------|


  E E E S S E E E  E    +Q   E  E  +E  E  Q
|--------------------|-----------------------|
|--------------------|-----------------------|
|---5-3------------0-|--(0)-----3--(3)-3-----|
|-0-----0-0-0-0-0----|-------0------------3--|
|
| E E H         E  E    +Q.     Q.        q
|-----3--------------|-----------------------|
|---7-5-----------13-|-(13)------------------|
|---7-5-----------14-|-(14)-----9--------12--|
|--------------------|---------10--------14--|
|--------------------|-----------------------|
|--------------------|-----------------------|
|
| W                      W
|--------------------|-----------------------|
|--------------------|-----------------------|
|--------------------|-----------------------|
|--------------------|-----------------------|
|--------------------|-----------------------|
|--------------------|-----------------------|


  E S S E E E E E S S   E S S E E E E E E
|---------------------|-------------------|
|---------------------|-------------------|
|-------7---5-7-------|-------7---5-7---5-|
|-0-0-0---0-----0-0-0-|-0-0-0---0-----0---|
|
| Q     E E E E Q       Q     E E E E E E
|---------------------|-------------------|
|-------8---7-8-------|-------8---7-8---7-|
|-------9---7-9-------|-------9---7-9---7-|
|---------------------|-------------------|
|---------------------|-------------------|
|---------------------|-------------------|
|
| W                     W
|---------------------|-------------------|
|---------------------|-------------------|
|---------------------|-------------------|
|---------------------|-------------------|
|---------------------|-------------------|
|---------------------|-------------------|


  E  E E  S S E E  E  S S    E   E  E  S S   E   E  E S S
|-------------------------|---------------------------------|
|-------------------------|---------------------------------|
|----5-3------------------|---------------------------------|
|-0-------0-0-0-0--0--0-0-|--0---0--0--0-0---0---0--0-0-0---|
|
| E  E H.                   +W
|------3------------------|-(3)-----------------------------|
|----7-5------------------|-(5)-----------------------------|
|----7-5------------------|-(5)-----------------------------|
|-------------------------|---------------------------------|
|-------------------------|---------------------------------|
|-------------------------|---------------------------------|
|
| H.               E  E      E   E  E  E    +E   E  Q
|-------------------------|---------------------------------|
|-------------------------|-----------15---(15)-17-15-------|
|-----------------14-16---|-16--14-16-----------------------|
|-------------------------|---------------------------------|
|-------------------------|---------------------------------|
|-------------------------|---------------------------------|


   E S S E E   E  E E S S   E S S E E E E E E
|-------------------------|-------------------|
|-------------------------|-------------------|
|--------7-----5--7-------|-------7---5-7---5-|
|--0-0-0---0--------0-0-0-|-0-0-0---0-----0---|
|
|  Q     E E   E  E Q       Q     E E E E E E
|-------------------------|-------------------|
|--------8-----7--8-------|-------8---7-8---7-|
|--------9-----7--9-------|-------9---7-9---7-|
|-------------------------|-------------------|
|-------------------------|-------------------|
|-------------------------|-------------------|
|
|              >
|  H          +H            W
|-------------------------|-------------------|
|-------------------------|-------------------|
|-16---------(16)---------|-------------------|
|-------------------------|-------------------|
|-------------------------|-------------------|
|-------------------------|-------------------|


  E E E S S E E E  E    +Q   E  E  +E  E  Q
|--------------------|-----------------------|
|--------------------|-----------------------|
|---5-3------------0-|--(0)-----3--(3)-3-----|
|-0-----0-0-0-0-0----|-------0------------3--|
|
| E E H         E  E    +Q.     Q.        q
|-----3--------------|-----------------------|
|---7-5-----------13-|-(13)------------------|
|---7-5-----------14-|-(14)-----9--------12--|
|--------------------|---------10--------14--|
|--------------------|-----------------------|
|--------------------|-----------------------|
|
| W                      W
|--------------------|-----------------------|
|--------------------|-----------------------|
|--------------------|-----------------------|
|--------------------|-----------------------|
|--------------------|-----------------------|
|--------------------|-----------------------|


  E S S E E E E E S S   E S S E E E E E E
|---------------------|-------------------|
|---------------------|-------------------|
|-------7---5-7-------|-------7---5-7---5-|
|-0-0-0---0-----0-0-0-|-0-0-0---0-----0---|
|
| Q     E E E E Q       Q     E E E E E E
|---------------------|-------------------|
|-------8---7-8-------|-------8---7-8---7-|
|-------9---7-9-------|-------9---7-9---7-|
|---------------------|-------------------|
|---------------------|-------------------|
|---------------------|-------------------|
|
| W                     W
|---------------------|-------------------|
|---------------------|-------------------|
|---------------------|-------------------|
|---------------------|-------------------|
|---------------------|-------------------|
|---------------------|-------------------|


  E  E E  S S E E  E  S S    E   E  E  S S   E   E  E S S
|-------------------------|---------------------------------|
|-------------------------|---------------------------------|
|----5-3------------------|---------------------------------|
|-0-------0-0-0-0--0--0-0-|--0---0--0--0-0---0---0--0-0-0---|
|
| E  E H.                   +W
|------3------------------|-(3)-----------------------------|
|----7-5------------------|-(5)-----------------------------|
|----7-5------------------|-(5)-----------------------------|
|-------------------------|---------------------------------|
|-------------------------|---------------------------------|
|-------------------------|---------------------------------|
|
| H.               E  E      E   E  E  E    +E   E  Q
|-------------------------|---------------------------------|
|-------------------------|-----------15---(15)-------------|
|-----------------14-16---|-16--14-16-----------16-14-------|
|-------------------------|---------------------------------|
|-------------------------|---------------------------------|
|-------------------------|---------------------------------|


   E S S E E   E  E E S S   E S S E E E E E E
|-------------------------|-------------------|
|-------------------------|-------------------|
|--------7-----5--7-------|-------7---5-7---5-|
|--0-0-0---0--------0-0-0-|-0-0-0---0-----0---|
|
|  Q     E E   E  E Q       Q     E E E E E E
|-------------------------|-------------------|
|--------8-----7--8-------|-------8---7-8---7-|
|--------9-----7--9-------|-------9---7-9---7-|
|-------------------------|-------------------|
|-------------------------|-------------------|
|-------------------------|-------------------|
|
|              >
|  H          +H            W
|-------------------------|-------------------|
|-------------------------|-------------------|
|-16---------(16)---------|-------------------|
|-------------------------|-------------------|
|-------------------------|-------------------|
|-------------------------|-------------------|


  E E E S S E E E  E    +Q   E  E  +E  E   Q
|--------------------|-------------------------||
|--------------------|-------------------------||
|---5-3------------0-|--(0)-----3--(3)-3-------||
|-0-----0-0-0-0-0----|-------0-------------3---||
|
| E E H         E  E    +Q.     Q.        +Q
|-----3--------------|-------------------------||
|---7-5-----------13-|-(13)--------------------||
|---7-5-----------14-|-(14)-----9---------(9)--||
|--------------------|---------10--------(10)--||
|--------------------|-------------------------||
|--------------------|-------------------------||
|
| W                      W
|--------------------|-------------------------||
|--------------------|-------------------------||
|--------------------|-------------------------||
|--------------------|-------------------------||
|--------------------|-------------------------||
|--------------------|-------------------------||


 Bridge
  E E E S S E E E S S    E  E E S S E E E S S
|---------------------|-----------------------|
|---------------------|-----------------------|
|---------------------|-----------------------|
|-0-0-0-0-0-0-0-0-0-0-|--0--0-0-0-0-0-0-0-0-0-|
|
| W                     +H          E E E E
|---------------------|-----------------------|
|---------------------|-----------------------|
|---------------------|-------------4-2---2---|
|-5-------------------|-(5)---------5-4-5-4---|
|-7-------------------|-(7)-------------7-----|
|---------------------|-----------------------|


   E  E  E  S S E E E S S    E  E E S S E E E S S
|-------------------------|------------------------|
|-------------------------|------------------------|
|-------------------------|------------------------|
|--0--0--0--0-0-0-0-0-0-0-|--0--0-0-0-0-0-0-0-0-0--|
|
| +E  E +H.                 +H          E E E E
|-------------------------|------------------------|
|-------------------------|------------------------|
|-(2)---------------------|------------------------|
|-(4)-4-(4)---------------|-(4)---------4-5---7----|
|-----5-(5)---------------|-(5)---------5-7---9----|
|-------------------------|------------------------|


    E E E  S S E E E S S    E  E E S S E E E S S
||-----------------------|-----------------------|
||o----------------------|-----------------------|
||o----------------------|-----------------------|
||--0-0-0--0-0-0-0-0-0-0-|--0--0-0-0-0-0-0-0-0-0-|
|
|   E E H.                 +H          E E E E
||-----------------------|-----------------------|
||o----------------------|-----------------------|
||-----------------------|-------------4-2---2---|
||----4-5----------------|-(5)---------5-4-5-4---|
||o---5-7----------------|-(7)-------------7-----|
||-----------------------|-----------------------|


                                         To Coda
   E  E  E  S S E E E S S    E  E E S S E E E S S  3x
|-------------------------|------------------------||
|-------------------------|-----------------------o||
|-------------------------|-----------------------o||
|--0--0--0--0-0-0-0-0-0-0-|--0--0-0-0-0-0-0-0-0-0--||
|
| +E  E +H.                 +H          E E E E    3x
|-------------------------|------------------------||
|-------------------------|-----------------------o||
|-(2)---------------------|------------------------||
|-(4)-4-(4)---------------|-(4)---------4-5---7----||
|-----5-(5)---------------|-(5)---------5-7---9---o||
|-------------------------|------------------------||


                                         D.S. al Coda
  E E E  S S E E E S S    E  E E S S  E   E   E   S  S
|----------------------|-------------------------------||
|----------------------|-------------------------------||
|----------------------|-------------------------------||
|-0-0-0--0-0-0-0-0-0-0-|--0--0-0-0-0--0---0---0---0--0-||
|
| E E H.                 +H           E   E   E   E
|----------------------|-------------------------------||
|----------------------|-------------12--10------------||
|----------------------|---------------------12--11----||
|---4-5----------------|-(5)---------(5)-(5)-(5)-(5)---||
|---5-7----------------|-(7)---------(7)-(7)-(7)-(7)---||
|----------------------|-------------------------------||


  &
  E E E  S S E E E S S    E  E E S S E E E S S
|----------------------|-----------------------||
|----------------------|-----------------------||
|----------------------|-----------------------||
|-0-0-0--0-0-0-0-0-0-0-|--0--0-0-0-0-0-0-0-0-0-||
|
| E E H.                 +W
|----------------------|-----------------------||
|----------------------|-----------------------||
|----------------------|-----------------------||
|---4-5----------------|-(5)-------------------||
|---5-7----------------|-(7)-------------------||
|----------------------|-----------------------||


   Instrumental Section
        |-3-|     |-3-|       |-3-|
    E E E E E E E E E E   E E E E E Q  Q
||----------------------|-----------------|
||o---------------------|-----------------|
||o---------------------|-----------------|
||--5---5-5-5-5---5-5-5-|-5---5-5-5-6--3--|


      |-3-|     |-3-|       |-3-|
  E E E E E E E E E E   E E E E E Q  Q
|---------------------|--------------------||
|---------------------|-------------------o||
|---------------------|-------------------o||
|-5---5-5-5-5---5-5-5-|-5---5-5-5-8--3-----||


        |--3--|       |--3--|         |--3--|
   E E  E  E  E  E E  E  E  E    E E  E  E  E  Q   Q
|-----------------------------|-----------------------|
|-----------------------------|-----------------------|
|-----------------------------|-----------------------|
|--5----5--5--5--5----5--5--5-|--5----5--5--5--6---3--|
|
| Gtr II
|       |--3--|       |--3--|         |--3--|
|  E E  E  E  E  E E  E  E  E    E E  E  E  E  q   q
|-17---17-17-17-17---17-17-17-|-17---17-17-17-18--15--|
|-10---10-10-10-10---10-10-10-|-10---10-10-10-11---8--|
|-----------------------------|-----------------------|
|--7----7--7--7--7----7--7--7-|--7----7--7--7--8---5--|
|-----------------------------|-----------------------|
|-----------------------------|-----------------------|


        |--3--|       |--3--|         |--3--|
   E E  E  E  E  E E  E  E  E    E E  E  E  E  Q   Q
|-----------------------------|-----------------------|
|-----------------------------|-----------------------|
|-----------------------------|-----------------------|
|--5----5--5--5--5----5--5--5-|--5----5--5--5--8---3--|
|
|       |--3--|       |--3--|         |--3--|
|  E E  E  E  E  E E  E  E  E    E E  E  E  E  q   q
|-17---17-17-17-17---17-17-17-|-17---17-17-17-20--15--|
|-10---10-10-10-10---10-10-10-|-10---10-10-10-13---8--|
|-----------------------------|-----------------------|
|--7----7--7--7--7----7--7--7-|--7----7--7--7-10---5--|
|-----------------------------|-----------------------|
|-----------------------------|-----------------------|


        |--3--|       |--3--|         |--3--|
   E E  E  E  E  E E  E  E  E    E E  E  E  E  Q   Q
|-----------------------------|-----------------------|
|-----------------------------|-----------------------|
|-----------------------------|-----------------------|
|--5----5--5--5--5----5--5--5-|--5----5--5--5--6---3--|
|
|       |--3--|       |--3--|         |--3--|
|  E E  E  E  E  E E  E  E  E    E E  E  E  E  q   q
|-17---17-17-17-17---17-17-17-|-17---17-17-17-18--15--|
|-10---10-10-10-10---10-10-10-|-10---10-10-10-11---8--|
|-----------------------------|-----------------------|
|--7----7--7--7--7----7--7--7-|--7----7--7--7--8---5--|
|-----------------------------|-----------------------|
|-----------------------------|-----------------------|


        |--3--|       |--3--|         |--3--|
   E E  E  E  E  E E  E  E  E    E E  E  E  E  Q   Q
|-----------------------------|-----------------------|
|-----------------------------|-----------------------|
|-----------------------------|-----------------------|
|--5----5--5--5--5----5--5--5-|--5----5--5--5--8---3--|
|
|       |--3--|       |--3--|         |--3--|
|  E E  E  E  E  E E  E  E  E    E E  E  E  E  q   q
|-17---17-17-17-17---17-17-17-|-17---17-17-17-20--15--|
|-10---10-10-10-10---10-10-10-|-10---10-10-10-13---8--|
|-----------------------------|-----------------------|
|--7----7--7--7--7----7--7--7-|--7----7--7--7-10---5--|
|-----------------------------|-----------------------|
|-----------------------------|-----------------------|


  Q.=128
 12/8
  Gtr II
   Q.      +Q    E  H.         +Q    E   Q    E  Q.     Q.
|----------------8----------|-----------------7--8------7-----|
|-10------(10)---5-10-------|-(10)---8--10-------5------3-----|
|--5-------(5)---5--5-------|--(5)--(5)-(5)--(5)-5------4-----|
|--7-------(7)------7-------|--(7)--(7)-(7)--(7)--------------|
|---------------------------|---------------------------------|
|---------------------------|---------------------------------|
|
| Gtr III
|  e  Q.       W                Q.       q    E  q   E  q   E
|---------------------------|--------------------8-----12-----|
|-10------------------------|-----------10--------------------|
|---------------------------|--------------------5------9-----|
|--7------------------------|------------7--------------------|
|---------------------------|---------------------------------|
|---------------------------|---------------------------------|


   Q.    +Q   E  H.         +Q    E   Q    E  Q.     Q.
|-------------8----------|-----------------7--8------7-------|
|-10----(10)--5-10-------|-(10)---8--10-------5------3-------|
|--5-----(5)--5--5-------|--(5)--(5)-(5)--(5)-5------4-------|
|--7-----(7)-----7-------|--(7)--(7)-(7)--(7)----------------|
|------------------------|-----------------------------------|
|------------------------|-----------------------------------|
|
|  W.                        Q.       q    E  q   E  q   E
|------------------------|--------------------8-----12-------|
|------------------------|-----------10----------------------|
|------------------------|--------------------5------9-------|
|------------------------|------------7----------------------|
|------------------------|-----------------------------------|
|------------------------|-----------------------------------|


  Q.   +Q   E  H.         +Q     E    Q     E   Q.     Q.
|-----------7----------|--------------------7--10------8-----|
|-8----(8)--3--8-------|--(8)----5----8---------6------5-----|
|-4----(4)--4----------|------------------------7------5-----|
|-5----(5)-----9-------|--(9)---(9)--(9)---(9)---------------|
|-------------10-------|-(10)--(10)-(10)--(10)---------------|
|----------------------|-------------------------------------|
|
| W.                       Q.         q     E   q   E  q   E
|----------------------|------------------------7-----10-----|
|----------------------|--------------8----------------------|
|----------------------|------------------------4------7-----|
|----------------------|--------------5----------------------|
|----------------------|-------------------------------------|
|----------------------|-------------------------------------|


   Q.    +Q   E  H.         +Q    E   Q    E  Q.     Q.
|-------------8----------|-----------------7--8------7--------|
|-10----(10)--5-10-------|-(10)---8--10-------5------3--------|
|--5-----(5)--5--5-------|--(5)--(5)-(5)--(5)-5------4--------|
|--7-----(7)-----7-------|--(7)--(7)-(7)--(7)-----------------|
|------------------------|------------------------------------|
|------------------------|------------------------------------|
|
|  W.                        Q.       q    E  q   E  q   E
|------------------------|--------------------8-----12--------|
|------------------------|-----------10-----------------------|
|------------------------|--------------------5------9--------|
|------------------------|------------7-----------------------|
|------------------------|------------------------------------|
|------------------------|------------------------------------|


   W.               +W.               W.               +W.
|-17-------------|-(17)------------|-20-------------|-(20)----|
|----------------|-----------------|----------------|---------|
|-14-------------|-(14)------------|-17-------------|-(17)----|
|----------------|-----------------|----------------|---------|
|----------------|-----------------|----------------|---------|
|----------------|-----------------|----------------|---------|
|
|  <                                  <
|  W.               +W.               W.               +W.
|----------------|-----------------|----------------|---------|
|----------------|-----------------|----------------|---------|
|----------------|-----------------|----------------|---------|
|--7-------------|--(7)------------|-10-------------|-(10)----|
|----------------|-----------------|----------------|---------|
|--5-------------|--(5)------------|--8-------------|--(8)----|


   W.               H.       H.         W.               +W.
|-22-------------|-19-------22-------|-24-------------|-(24)----|
|----------------|-------------------|----------------|---------|
|-19-------------|-16-------19-------|-21-------------|-(21)----|
|----------------|-------------------|----------------|---------|
|----------------|-------------------|----------------|---------|
|----------------|-------------------|----------------|---------|
|
|  <                                    <
|  W.               H.       H.         W.               +W.
|----------------|-------------------|----------------|---------|
|----------------|-------------------|----------------|---------|
|----------------|-------------------|----------------|---------|
|--5-------------|--2--------5-------|--7-------------|--(7)----|
|----------------|-------------------|----------------|---------|
|--3-------------|--0--------3-------|--5-------------|--(5)----|


  Gtr I
  e  S S  e  e Q  e  S S  e  e Q    e  S S  e  e S S  e  Q.    Q.
|---------------------------------|---------------------------------|
|---------------------------------|---------------------------------|
|---------------------------------|---------------------------------|
|-3--5-5--5--5----3--5-5--5--5----|-3--5-5--5--5-3-3--5--6-----6----|
|
| Gtr II
| e  e    e  e Q  e  e    e  e Q    e  e    e  e e    e  Q.    Q.
|---------------------------------|---------------------------------|
|-8-10---10-10----8-10---10-10----|-8-10---10-10-8---10-11----11----|
|---------------------------------|---------------------------------|
|-5--7----7--7----5--7----7--7----|-5--7----7--7-5----7--8-----8----|
|---------------------------------|---------------------------------|
|---------------------------------|---------------------------------|


  e  S S  e  e Q  e  S S  e  e Q    e  S S  e  e S S  e  Q.    Q.
|---------------------------------|---------------------------------|
|---------------------------------|---------------------------------|
|---------------------------------|---------------------------------|
|-3--5-5--5--5----3--5-5--5--5----|-3--5-5--5--5-3-3--5--8-----8----|
|
| e  e    e  e Q  e  e    e  e Q    e  e    e  e e    e  Q.    Q.
|---------------------------------|---------------------------------|
|-8-10---10-10----8-10---10-10----|-8-10---10-10-8---10-13----13----|
|---------------------------------|---------------------------------|
|-5--7----7--7----5--7----7--7----|-5--7----7--7-5----7-10----10----|
|---------------------------------|---------------------------------|
|---------------------------------|---------------------------------|


   e  S S  e  e Q   e  S S  e  e Q     e  S S  e  e  S S  e  Q.    Q.
|-----------------------------------|-----------------------------------|
|-----------------------------------|-----------------------------------|
|-----------------------------------|-----------------------------------|
|--3--5-5--5--5-----3--5-5--5--5----|--3--5-5--5--5--3-3--5--6-----6----|
|
|  e  e    e  e Q   e  e    e  e Q     e  e    e  e  e    e  Q.    Q.
|-15-17---17-17----15-17---17-17----|-15-17---17-17-15---17-18----18----|
|--8-10---10-10-----8-10---10-10----|--8-10---10-10--8---10-11----11----|
|-----------------------------------|-----------------------------------|
|-----------------------------------|-----------------------------------|
|-----------------------------------|-----------------------------------|
|-----------------------------------|-----------------------------------|


   e  S S  e  e Q   e  S S  e  e Q     e  S S  e  e  S S  e  Q.    Q.
|-----------------------------------|-----------------------------------|
|-----------------------------------|-----------------------------------|
|-----------------------------------|-----------------------------------|
|--3--5-5--5--5-----3--5-5--5--5----|--3--5-5--5--5--3-3--5--8-----8----|
|
|  e  e    e  e Q   e  e    e  e Q     e  e    e  e  e    e  Q.    Q.
|-15-17---17-17----15-17---17-17----|-15-17---17-17-15---17-20----20----|
|--8-10---10-10-----8-10---10-10----|--8-10---10-10--8---10-13----13----|
|-----------------------------------|-----------------------------------|
|-----------------------------------|-----------------------------------|
|-----------------------------------|-----------------------------------|
|-----------------------------------|-----------------------------------|


  Gtr II
  W.               Q.    Q.   Q.    Q.
|---------------|-------------8----12----|
|---------------|-------10---------------|
|---------------|-------------5-----9----|
|---------------|--------7---------------|
|---------------|------------------------|
|---------------|------------------------|
|
| Gtr III
| <
| W.              +W.
|---------------|------------------------|
|---------------|------------------------|
|---------------|------------------------|
|-7-------------|-(7)--------------------|
|---------------|------------------------|
|-5-------------|-(5)--------------------|


   W.               +Q.    Q.   Q.    Q.
|-12-------------|-(12)---------8----12-----|
|----------------|--------10----------------|
|--9-------------|--(9)---------5-----9-----|
|----------------|---------7----------------|
|----------------|--------------------------|
|----------------|--------------------------|
|
|  <
|  W.               +W.
|----------------|--------------------------|
|----------------|--------------------------|
|----------------|--------------------------|
|-10-------------|-(10)---------------------|
|----------------|--------------------------|
|--8-------------|--(8)---------------------|


   W.               +Q.   Q.   Q.    Q.
|-10-------------|-(10)--------7----10----|
|----------------|--------8---------------|
|--7-------------|--(7)--------4-----7----|
|----------------|--------5---------------|
|----------------|------------------------|
|----------------|------------------------|
|
|  <
|  W.                H.        H.
|----------------|------------------------|
|----------------|------------------------|
|----------------|------------------------|
|--5-------------|---2---------5----------|
|----------------|------------------------|
|--3-------------|---0---------3----------|


   W.               +Q.    Q.    Q.    Q.
|-12-------------|-(12)---------20----24-----|
|----------------|--------22----13----17-----|
|--9-------------|--(9)---14-----5-----9-----|
|----------------|---------7-----------------|
|----------------|---------------------------|
|----------------|---------------------------|
|
|  <
|  W.               +W.
|----------------|---------------------------|
|----------------|---------------------------|
|----------------|---------------------------|
|--7-------------|--(7)----------------------|
|----------------|---------------------------|
|--5-------------|--(5)----------------------|


   W.               +W.               W.               +W.
|-24-------------|-(24)------------|-27-------------|-(27)----|
|-17-------------|-(17)------------|-20-------------|-(20)----|
|--9-------------|--(9)------------|-12-------------|-(12)----|
|----------------|-----------------|----------------|---------|
|----------------|-----------------|----------------|---------|
|----------------|-----------------|----------------|---------|
|
|  <                                  <
|  W.               +W.               W.               +W.
|----------------|-----------------|----------------|---------|
|----------------|-----------------|----------------|---------|
|----------------|-----------------|----------------|---------|
|--7-------------|--(7)------------|-10-------------|-(10)----|
|----------------|-----------------|----------------|---------|
|--5-------------|--(5)------------|--8-------------|--(8)----|


   W.               H.       +H      +E   S  S    W.               +W.
|-27-------------|-19-------(19)----(19)-20-19-|-17-------------|-(17)----|
|-20-------------|-12-------(12)----(12)-13-12-|-10-------------|-(10)----|
|-12-------------|-----------------------------|----------------|---------|
|----------------|-----------------------------|----------------|---------|
|----------------|-----------------------------|----------------|---------|
|----------------|-----------------------------|----------------|---------|
|
|  <                                              <
|  W.               H.        H.                  W.               +W.
|----------------|-----------------------------|----------------|---------|
|----------------|-----------------------------|----------------|---------|
|----------------|-----------------------------|----------------|---------|
|--5-------------|--2---------5----------------|--7-------------|--(7)----|
|----------------|-----------------------------|----------------|---------|
|--3-------------|--0---------3----------------|--5-------------|--(5)----|


  Gtr I
  e  S S  e  e Q  e  S S  e  e Q    e  S S  e  e S S  e  Q.    Q.
|---------------------------------|---------------------------------|
|---------------------------------|---------------------------------|
|---------------------------------|---------------------------------|
|-3--5-5--5--5----3--5-5--5--5----|-3--5-5--5--5-3-3--5--6-----6----|
|
| Gtr II
| e  e    e  e Q  e  e    e  e Q    e  e    e  e e    e  Q.    Q.
|---------------------------------|---------------------------------|
|-8-10---10-10----8-10---10-10----|-8-10---10-10-8---10-11----11----|
|---------------------------------|---------------------------------|
|-5--7----7--7----5--7----7--7----|-5--7----7--7-5----7--8-----8----|
|---------------------------------|---------------------------------|
|---------------------------------|---------------------------------|


  e  S S  e  e Q  e  S S  e  e Q    e  S S  e  e S S  e  Q.    Q.
|---------------------------------|---------------------------------|
|---------------------------------|---------------------------------|
|---------------------------------|---------------------------------|
|-3--5-5--5--5----3--5-5--5--5----|-3--5-5--5--5-3-3--5--8-----8----|
|
| e  e    e  e Q  e  e    e  e Q    e  e    e  e e    e  Q.    Q.
|---------------------------------|---------------------------------|
|-8-10---10-10----8-10---10-10----|-8-10---10-10-8---10-13----13----|
|---------------------------------|---------------------------------|
|-5--7----7--7----5--7----7--7----|-5--7----7--7-5----7-10----10----|
|---------------------------------|---------------------------------|
|---------------------------------|---------------------------------|


   e  S S  e  e Q   e  S S  e  e Q     e  S S  e  e  S S  e  Q.    Q.
|-----------------------------------|-----------------------------------|
|-----------------------------------|-----------------------------------|
|-----------------------------------|-----------------------------------|
|--3--5-5--5--5-----3--5-5--5--5----|--3--5-5--5--5--3-3--5--6-----6----|
|
|  e  e    e  e Q   e  e    e  e Q     e  e    e  e  e    e  Q.    Q.
|-15-17---17-17----15-17---17-17----|-15-17---17-17-15---17-18----18----|
|--8-10---10-10-----8-10---10-10----|--8-10---10-10--8---10-11----11----|
|-----------------------------------|-----------------------------------|
|-----------------------------------|-----------------------------------|
|-----------------------------------|-----------------------------------|
|-----------------------------------|-----------------------------------|


   e  S S  e  e Q   e  S S  e  e Q     e  S S  e  e  S S  e  Q.    Q.
|-----------------------------------|-----------------------------------|
|-----------------------------------|-----------------------------------|
|-----------------------------------|-----------------------------------|
|--3--5-5--5--5-----3--5-5--5--5----|--3--5-5--5--5--3-3--5--8-----8----|
|
|  e  e    e  e Q   e  e    e  e Q     e  e    e  e  e    e  Q.    Q.
|-15-17---17-17----15-17---17-17----|-15-17---17-17-15---17-20----20----|
|--8-10---10-10-----8-10---10-10----|--8-10---10-10--8---10-13----13----|
|-----------------------------------|-----------------------------------|
|-----------------------------------|-----------------------------------|
|-----------------------------------|-----------------------------------|
|-----------------------------------|-----------------------------------|


 Verse
  Q=128
 4/4
  H.       Q       H.       Q     H.       Q       H     H
|---------------|---------------|---------------|----------------|
|---------------|---------------|---------------|----------------|
|---------------|---------------|---------------|----------------|
|-5--------7----|--8--------8\--|-3--------3----|--0-----3-------|
|
| H.       E  E    H.       q     H.       E  E    H     Q   Q
|---------------|-12-------12---|---------15-17-|-19----20--19---|
|---------12-13-|-13-------13---|---------------|----------------|
|---------------|---------------|---------12-14-|-16----17--16---|
|---------------|---------------|---------------|----------------|
|---------------|---------------|---------------|----------------|
|---------------|---------------|---------------|----------------|


   H.             Q       H    +E. S Q     W           H     H
|----------------------|----------------|-----------|-------------------------|
|----------------------|----------------|-----------|-------------------------|
|----------------------|-------------7--|--5--------|--3----------------------|
|--5--------------7----|--8----(8)-0----|-----------|--------3----------------|
|
|  Q.    E  E  E  E  E    H     H          W           H     E   E    E    E
|-17-------17----17-19-|-20----24-------|-22--------|-22----24--22---19---20--|
|-------17----17-------|----------------|-----------|-------------------------|
|-14-------------------|-17----16-------|-14--------|-12----21--19---16---17--|
|----------------------|----------------|-----------|-------12-(12)-(12)-(12)-|
|----------------------|----------------|-----------|-------------------------|
|----------------------|----------------|-----------|-------------------------|


   H.             Q       H.      Q     H.       Q       H     H
|----------------------|--------------|---------------|---------------|
|----------------------|--------------|---------------|---------------|
|----------------------|--------------|---------------|---------------|
|--5--------------7----|--8-------8\--|-3--------3----|--0-----3------|
|
|  Q.    E  E  E  E  E    H.      Q     H.       E  E    H     Q   Q
|-17-------17----17-19-|-20-----------|---------15-17-|-19----20--19--|
|-------17----17-------|--------------|---------------|---------------|
|-14-------------------|-17-----------|---------12-14-|-16----17--16--|
|----------------------|--------------|---------------|---------------|
|----------------------|--------------|---------------|---------------|
|----------------------|--------------|---------------|---------------|


   H.             Q       H    +E. S Q     W            H      H
|----------------------|----------------|-----------|---------------|
|----------------------|----------------|-----------|---------------|
|----------------------|-------------7--|--5--------|---3-----------|
|--5--------------7----|--8----(8)-0----|-----------|----------3----|
|
|  Q.    E  E  E  E  E    H     H          W            H      H
|-17-------17----17-19-|-20----24-------|-26--------|-(26)----27----|
|-------17----17-------|----------------|-----------|---------------|
|-14-------------------|-17----16-------|-19--------|-(19)----------|
|----------------------|----------------|-19--------|--17-----17----|
|----------------------|----------------|-----------|---------17----|
|----------------------|----------------|-----------|---------------|


   Bridge
    Gtr II
    S  S  S  S  e E E S  S  S  S  S  S   S  S  S  S  e E E S  S S S S S
||-------------------------------------|--------------------------------|
||o------------------------------------|--------------------------------|
||-------------------------------------|------------------------9-9-9-9-|
||--9-10-10-10-10-----9-10-12-12-12-12-|-9-10-10-10-10-----9-10---------|
||o------------------------------------|--------------------------------|
||-------------------------------------|--------------------------------|


  S  S  S  S  e E E S  S  S  S  S  S   S  S  S  S  e E H
|------------------------------------|-----------------------||
|------------------------------------|----------------------o||
|------------------------------------|-----------------------||
|-9-10-10-10-10-----9-10-12-12-12-12-|-9-10-10-10-10---------||
|------------------------------------|----------------------o||
|------------------------------------|-----------------------||


  Gtr I
  E E E S S E E E E   E E E S S E E E E
|-------------------|-------------------|
|-------------------|-------------------|
|-------------------|-------------------|
|-3-5-3-5-5-6-5-3-5-|-3-5-3-5-5-6-5-3-5-|
|
| Gtr II
| W                   W
|-------------------|-------------------|
|-------------------|-------------------|
|-------------------|-------------------|
|-------------------|-------------------|
|-------------------|-------------------|
|-------------------|-------------------|


  E E E S S E E E E   E  E E S S E E E  E
|-------------------|-------------------------|
|-------------------|-------------------------|
|-------------------|-------------------------|
|-3-5-3-5-5-6-5-3-5-|-3--5-3-5-5-6-5-3--5-----|
|
| W                   H.             E  S  S
|-------------------|-------------------------|
|-------------------|-------------------------|
|-------------------|------------------14-15--|
|-------------------|-------------------------|
|-------------------|-------------------------|
|-------------------|-------------------------|


   E E E S S E E E E    E  E E  S S   E   E   E   E
|--------------------|---------------------------------|
|--------------------|---------------------------------|
|--------------------|---------------------------------|
|--3-5-3-5-5-6-5-3-5-|--3--5-3--5-5---6---5---3---5----|
|
|  W                    Q.      E    +E   E  +E   S  S
|--------------------|---------------------------------|
|--------------------|---------------------------------|
|-14-----------------|-17------15---(15)-12-(12)-14-15-|
|--------------------|---------------------------------|
|--------------------|---------------------------------|
|--------------------|---------------------------------|


   E E E S S E E E E     E  E E S S E E E  E
|--------------------|--------------------------|
|--------------------|--------------------------|
|--------------------|--------------------------|
|--3-5-3-5-5-6-5-3-5-|---3--5-3-5-5-6-5-3--5----|
|
|  W                    +H.             E  S  S
|--------------------|--------------------------|
|--------------------|--------------------------|
|-14-----------------|-(14)---------------14-15-|
|--------------------|--------------------------|
|--------------------|--------------------------|
|--------------------|--------------------------|


   E E E S S E E E E    E  E E  S S   E   E   E   E
|--------------------|---------------------------------|
|--------------------|---------------------------------|
|--------------------|---------------------------------|
|--3-5-3-5-5-6-5-3-5-|--3--5-3--5-5---6---5---3---5----|
|
|  W                    Q.      E    +E   E  +E   S  S
|--------------------|---------------------------------|
|--------------------|---------------------------------|
|-14-----------------|-17------15---(15)-12-(12)-14-15-|
|--------------------|---------------------------------|
|--------------------|---------------------------------|
|--------------------|---------------------------------|


   E E E S S E E E E     E  E E S S E E E E
|--------------------|-----------------------|
|--------------------|-----------------------|
|--------------------|-----------------------|
|--3-5-3-5-5-6-5-3-5-|---3--5-3-5-5-6-5-3-5--|
|
|  W                    +W
|--------------------|-----------------------|
|--------------------|-----------------------|
|-14-----------------|-(14)------------------|
|--------------------|-----------------------|
|--------------------|-----------------------|
|--------------------|-----------------------|


   E E E S S E E E E    E E E S S E E E E
|--------------------|--------------------|
|--------------------|--------------------|
|--------------------|--------------------|
|--3-5-3-5-5-6-5-3-5-|--3-5-3-5-5-6-5-3-5-|
|
|  W                    W
|--------------------|--------------------|
|-10-----------------|-11-----------------|
|--------------------|--------------------|
|--7-----------------|--8-----------------|
|--------------------|--------------------|
|--------------------|--------------------|
|
| Gtr III
|  W                    W
|--------------------|--------------------|
|--------------------|--------------------|
|--------------------|--------------------|
|--------------------|--------------------|
|--------------------|--------------------|
|--------------------|--------------------|


   E  E  E  S  S  E  E  E  E    E  E  E  S  S  E      E  E  E
|----------------------------|--------------------------------||
|----------------------------|--------------------------------||
|----------------------------|--------------------------------||
|--3--5--3--5--5--6--5--3--5-|--3--5--3--5--5--6------5--3--5-||
|
|  W                            W
|----------------------------|--------------------------------||
|-13-------------------------|-15-----------------------------||
|----------------------------|--------------------------------||
|-10-------------------------|-12-----------------------------||
|----------------------------|--------------------------------||
|----------------------------|--------------------------------||
|
|  E  E  E  S  S  E  E  E  E    E  E  E  S  S  E      E  E  E
|----------------------------|-27-29-27-29-29-29pb30-29-27-29-||
|-20-22-20-22-22-23-22-20-22-|-20-22-20-22-22-23-----22-20-22-||
|----------------------------|--------------------------------||
|----------------------------|--------------------------------||
|----------------------------|--------------------------------||
|----------------------------|--------------------------------||


 Verse
  W              +H       H        W                 +H          E E  E  E
|--------------|----------------|-----------------|------------------------|
|--------------|----------5-----|-----------------|------------------------|
|-5------------|-(5)------------|--8--------------|--(8)---------8s7--7s=5-|
|--------------|----------------|-----------------|------------------------|
|
| W              +H       H        W                 +H          H
|--------------|----------------|-----------------|------------------------|
|--------------|----------8-----|-----------------|------------------------|
|-7------------|-(7)------------|-10--------------|-(10)-------------------|
|--------------|----------5-----|-----------------|------------------------|
|-5------------|-(5)------------|--8--------------|--(8)-------------------|
|--------------|----------------|-----------------|------------------------|
|
| Q  Q   Q  Q     Q   Q   Q  Q     Q   Q   Q   Q      Q     Q    Q    Q
|--------------|----------------|-----------------|---8----(8)---6---(6)---|
|-----------8--|-10---8---------|--8--------------|--10---(10)---8---(8)---|
|-7--9--10-----|---------10--9--|-----10----------|--10-----9--------------|
|--------------|----------------|---------12------|-------------12---10----|
|--------------|----------------|-------------12--|------------------------|
|--------------|----------------|-----------------|------------------------|


  W                   +H       H
|-------------------|----------------|
|-------------------|----------5-----|
|-5-----------------|-(5)------------|
|-------------------|----------------|
|
| W                   +H       H
|-------------------|----------------|
|-------------------|----------8-----|
|-7-----------------|-(7)------------|
|-------------------|----------5-----|
|-5-----------------|-(5)------------|
|-------------------|----------------|
|
| Q   Q    Q    Q      Q   Q   Q  Q
|-5--(5)--(5)--(5)--|----------------|
|-6--(6)--(6)--(6)--|-10---8---------|
|-7---9---10---12---|---------10--9--|
|-------------------|----------------|
|-------------------|----------------|
|-------------------|----------------|


   W                 +H          E E  E  E
|-----------------|------------------------|
|-----------------|------------------------|
|--8--------------|--(8)---------8s7--7s=5-|
|-----------------|------------------------|
|
|  W                 +H          H
|-----------------|------------------------|
|-----------------|------------------------|
|-10--------------|-(10)-------------------|
|-----------------|------------------------|
|--8--------------|--(8)-------------------|
|-----------------|------------------------|
|
|  Q   Q   Q   Q      Q     Q    Q    Q
|-----------------|---8----(8)---6---(6)---|
|--8--------------|--10---(10)---8---(8)---|
|-----10----------|--10-----9--------------|
|---------12------|-------------12---10----|
|-------------12--|------------------------|
|-----------------|------------------------|


   W                 +H        H       W                 +H        Q  Q
|-----------------|-----------------|-----------------|------------------|
|-----------------|-----------------|-----------------|------------------|
|--3--------------|--(3)-------8----|--7--------------|--(7)-------8--7--|
|-----------------|-----------------|-----------------|------------------|
|
|  W                 +H        H       W                 +H        H
|-----------------|-----------------|-----------------|------------------|
|-----------------|-----------------|-----------------|------------------|
|--5--------------|--(5)------10----|--9--------------|--(9)-------------|
|-----------------|-----------------|-----------------|------------------|
|--3--------------|--(3)-------8----|--7--------------|--(7)-------------|
|-----------------|-----------------|-----------------|------------------|
|
|  Q   Q   Q   Q     +Q    Q   H       Q   Q   Q   Q     +Q    Q   H
|-----------------|-----------------|-----------------|------------------|
|---------17--18--|-(18)--17--------|---------18--20--|-(20)--18---------|
|-17--19----------|-----------19----|-19--21----------|-----------21-----|
|-----------------|-----------------|-----------------|------------------|
|-----------------|-----------------|-----------------|------------------|
|-----------------|-----------------|-----------------|------------------|


   W                      +H       H
|-----------------------|----------------|
|-----------------------|----------5-----|
|--5--------------------|-(5)------------|
|-----------------------|----------------|
|
|  W                      +H       H
|-----------------------|----------------|
|-----------------------|----------8-----|
|--7--------------------|-(7)------------|
|-----------------------|----------5-----|
|--5--------------------|-(5)------------|
|-----------------------|----------------|
|
|  Q    Q     Q     Q      Q   Q   Q  Q
|-----------------------|----------------|
|-15--(15)--(15)--(15)--|-10---8---------|
|--7----9----10----12---|---------10--9--|
|-----------------------|----------------|
|-----------------------|----------------|
|-----------------------|----------------|


   W                 +H          E E  E  E
|-----------------|------------------------|
|-----------------|------------------------|
|--8--------------|--(8)---------8s7--7s=5-|
|-----------------|------------------------|
|
|  W                 +H          H
|-----------------|------------------------|
|-----------------|------------------------|
|-10--------------|-(10)-------------------|
|-----------------|------------------------|
|--8--------------|--(8)-------------------|
|-----------------|------------------------|
|
|  Q   Q   Q   Q      Q     Q    Q    Q
|-----------------|---8----(8)---6---(6)---|
|--8--------------|--10---(10)---8---(8)---|
|-----10----------|--10-----9--------------|
|---------12------|-------------12---10----|
|-------------12--|------------------------|
|-----------------|------------------------|


  W                   +H       H
|-------------------|----------------|
|-------------------|----------5-----|
|-5-----------------|-(5)------------|
|-------------------|----------------|
|
| W                   +H       H
|-------------------|----------------|
|-------------------|----------8-----|
|-7-----------------|-(7)------------|
|-------------------|----------5-----|
|-5-----------------|-(5)------------|
|-------------------|----------------|
|
| Q   Q    Q    Q      Q   Q   Q  Q
|-5--(5)--(5)--(5)--|----------------|
|-6--(6)--(6)--(6)--|-10---8---------|
|-7---9---10---12---|---------10--9--|
|-------------------|----------------|
|-------------------|----------------|
|-------------------|----------------|


   W                 +H          E E  E  E
|-----------------|------------------------|
|-----------------|------------------------|
|--8--------------|--(8)---------8s7--7s=5-|
|-----------------|------------------------|
|
|  W                 +H          H
|-----------------|------------------------|
|-----------------|------------------------|
|-10--------------|-(10)-------------------|
|-----------------|------------------------|
|--8--------------|--(8)-------------------|
|-----------------|------------------------|
|
|  Q   Q   Q   Q      Q     Q    Q    Q
|-----------------|---8----(8)---6---(6)---|
|--8--------------|--10---(10)---8---(8)---|
|-----10----------|--10-----9--------------|
|---------12------|-------------12---10----|
|-------------12--|------------------------|
|-----------------|------------------------|


   W            +H      H       W            +H      Q  Q
|-------------|--------------|-------------|---------------|
|-------------|--------------|-------------|---------------|
|--3----------|-(3)-----8----|--7----------|-(7)-----8--7--|
|-------------|--------------|-------------|---------------|
|
|  W            +H      H       W            +H      H
|-------------|--------------|-------------|---------------|
|-------------|--------------|-------------|---------------|
|--5----------|-(5)----10----|--9----------|-(9)-----------|
|-------------|--------------|-------------|---------------|
|--3----------|-(3)-----8----|--7----------|-(7)-----------|
|-------------|--------------|-------------|---------------|
|
|  H     H       H      H       H     H       H      H
|-------------|--------------|-------------|---------------|
|-18----17----|-15-----17----|-20----18----|-17-----13-----|
|-------------|--------------|-------------|---------------|
|-15----14----|-12-----14----|-17----15----|-14-----10-----|
|-------------|--------------|-------------|---------------|
|-------------|--------------|-------------|---------------|


   W                 +H        H       W                 +H      E E E E
|-----------------|-----------------|-----------------|------------------||
|-----------------|------------5----|-----------------|------------------||
|--5--------------|--(5)------------|--8--------------|--(8)-----8s7-7s5-||
|-----------------|-----------------|-----------------|------------------||
|
|  W                 +H        H       W                 +H      H
|-----------------|-----------------|-----------------|------------------||
|-----------------|------------8----|-----------------|------------------||
|--7--------------|--(7)------------|-10--------------|-(10)-------------||
|-----------------|------------5----|-----------------|------------------||
|--5--------------|--(5)------------|--8--------------|--(8)-------------||
|-----------------|-----------------|-----------------|------------------||
|
|  Q   Q   Q   Q     +Q    H.          Q   Q   Q   Q      H      H
|-22--24--25--24--|-(24)--22--------|-20--22--24--25--|--24-----22-------||
|-15--17--18--17--|-(17)--15--------|-13--15--17--18--|--17-----15-------||
|-----------------|-----------------|-----------------|------------------||
|-----------------|-----------------|-----------------|------------------||
|-----------------|-----------------|-----------------|------------------||
|-----------------|-----------------|-----------------|------------------||


 Distorted Outro
   S S S S e S S S S e S S S S     e  S S S S  Q.    Q
|------------------------------|------------------------|
|------------------------------|------------------------|
|--5-5-5-5-5-5-5-5-5-5-5-5-5-5-|---5--5-5-5-5--6-----6--|
|------------------------------|------------------------|
|
|  W                               Q.          Q.    Q
|-10---------------------------|--11----------13----11--|
|------------------------------|------------------------|
|--7---------------------------|---8----------10-----8--|
|------------------------------|------------------------|
|--5---------------------------|---6-----------8-----6--|
|------------------------------|------------------------|
|
|                                  >
|  W                              +W
|-22---------------------------|-(22)-------------------|
|-15---------------------------|-(15)-------------------|
|------------------------------|------------------------|
|------------------------------|------------------------|
|------------------------------|------------------------|
|------------------------------|------------------------|


     S S S S e S S S S e S S S S    e  S S S S  Q.    Q    13x
||-------------------------------|--------------------------||
||o------------------------------|-------------------------o||
||o--5-5-5-5-5-5-5-5-5-5-5-5-5-5-|--5--5-5-5-5--6-----6----o||
||-------------------------------|--------------------------||
|
|    W                              Q.          Q.    Q    13x
||--10---------------------------|-11----------13----11-----||
||o------------------------------|-------------------------o||
||---7---------------------------|--8----------10-----8-----||
||-------------------------------|--------------------------||
||o--5---------------------------|--6-----------8-----6----o||
||-------------------------------|--------------------------||
|
|    W                              W                      13x
||-------------------------------|--------------------------||
||o------------------------------|-------------------------o||
||-------------------------------|--------------------------||
||-------------------------------|--------------------------||
||o------------------------------|-------------------------o||
||-------------------------------|--------------------------||


  Gtr I
   S S S S e S S S S e S S S S    e  S S S S  Q.    Q
|------------------------------|-----------------------||
|------------------------------|-----------------------||
|--5-5-5-5-5-5-5-5-5-5-5-5-5-5-|--5--5-5-5-5--6-----6--||
|------------------------------|-----------------------||
|
| Gtr II
|  W                              Q.          Q.    Q
|-10---------------------------|-11----------13----11--||
|------------------------------|-----------------------||
|--7---------------------------|--8----------10-----8--||
|------------------------------|-----------------------||
|--5---------------------------|--6-----------8-----6--||
|------------------------------|-----------------------||


  Gtr I
   S S S S e S S S S e S S S S     e  S S S S  Q.    Q
|------------------------------|------------------------||
|------------------------------|------------------------||
|--5-5-5-5-5-5-5-5-5-5-5-5-5-5-|---5--5-5-5-5--6-----6--||
|------------------------------|------------------------||
|
| Gtr II
|  W                               Q.          Q.    Q
|-10---------------------------|--11----------13----11--||
|------------------------------|------------------------||
|--7---------------------------|---8----------10-----8--||
|------------------------------|------------------------||
|--5---------------------------|---6-----------8-----6--||
|------------------------------|------------------------||
|
| Gtr III
|  <
|  W                              +W
|------------------------------|------------------------||
|------------------------------|------------------------||
|------------------------------|------------------------||
|------------------------------|------------------------||
|--8---------------------------|--(8)-------------------||
|-10---------------------------|-(10)-------------------||


 Strings Outro
  Rubato Feel Q=110
  Gtr II
  W               +W
|---------------|-----------------------------|
|-6-------------|-(6)-------------------------|
|---------------|-----------------------------|
|---------------|-----------------------------|
|-5-------------|-(5)-------------------------|
|---------------|-----------------------------|
|
| Gtr III
| E  E  H.         E  E  E E +E   E  +E  a  E
|---------------|-----------------------------|
|------10-------|-10--8----8-(8)-10-(10)------|
|---10----------|-------10---------------9h10-|
|---------------|-----------------------------|
|---------------|-----------------------------|
|---------------|-----------------------------|


    W               Q.   Q.   Q
|----------------|--3----5----3---|
|---6------------|----------------|
|----------------|----------------|
|----------------|--7---------5---|
|--(5)-----------|-------8--------|
|----------------|----------------|
|
|  +E  E H.        +W
|----------------|----------------|
|----------------|----------------|
|-(10)-9-7-------|-(7)------------|
|----------------|----------------|
|----------------|----------------|
|----------------|----------------|


  W               +W
|---------------|------------------------------|
|-6-------------|-(6)--------------------------|
|---------------|------------------------------|
|---------------|------------------------------|
|-5-------------|-(5)--------------------------|
|---------------|------------------------------|
|
| E  E  H.         E  E  E E +E   E  +E   a  E
|---------------|------------------------------|
|------10-------|-10--8----8-(8)-10-(10)-11h13-|
|---10----------|-------10---------------------|
|---------------|------------------------------|
|---------------|------------------------------|
|---------------|------------------------------|


    W                  Q.   Q.   Q
|------------------|---5----6--------|
|---6--------------|-------------6---|
|------------------|-----------------|
|------------------|---7----8--------|
|--(5)-------------|-------------8---|
|------------------|-----------------|
|
|  +E   E  H.         +W
|------------------|-----------------|
|-(13)-11-10-------|-(10)------------|
|------------------|-----------------|
|------------------|-----------------|
|------------------|-----------------|
|------------------|-----------------|


  H.=H
  W               +W                             +W              +W
|---------------|-----------------------------|----------------|--------*|
|-6-------------|-(6)-------------------------|--(6)-----------|-(6)----*|
|---------------|-----------------------------|----------------|--------*|
|---------------|-----------------------------|----------------|--------*|
|-5-------------|-(5)-------------------------|--(5)-----------|-(5)----*|
|---------------|-----------------------------|----------------|--------*|
|
| E  E  H.         E  E  E E +E   E  +E  a  E    +E  E H.        +W
|---------------|-----------------------------|----------------|--------*|
|------10-------|-10--8----8-(8)-10-(10)------|----------------|--------*|
|---10----------|-------10---------------9h10-|-(10)-9-7-------|-(7)----*|
|---------------|-----------------------------|----------------|--------*|
|---------------|-----------------------------|----------------|--------*|
|---------------|-----------------------------|----------------|--------*|


Duration Legend
---------------
W - whole; H - half; Q - quarter; E - 8th; S - 16th; T - 32nd; X - 64th; a - acciaccatura
+ - note tied to previous; . - note dotted; .. - note double dotted
Uncapitalized letters represent notes that are staccato (1/2 duration)
Irregular groupings are notated above the duration line
Duration letters will always appear directly above the note/fret number it represents the
duration for.  Duration letters with no fret number below them represent rests.  Multi-
bar rests are notated in the form Wxn, where n is the number of bars to rest for.  Low
melody durations appear below the staff

Tablature Legend
----------------
 h   - hammer-on
 p   - pull-off
 b   - bend
 pb  - pre-bend
 r   - bend release (if no number after the r, then release immediately)
 /\  - slide into or out of (from/to "nowhere")
 s   - legato slide
 S   - shift slide
  - natural harmonic
[n]  - artificial harmonic
n(n) - tapped harmonic
 ~   - vibrato
 tr  - trill
 T   - tap
 TP  - trem. picking
 PM  - palm muting
\n/  - tremolo bar dip; n = amount to dip
 \n  - tremolo bar down
 n/  - tremolo bar up
/n\  - tremolo bar inverted dip
 =   - hold bend; also acts as connecting device for hammers/pulls
 <>  - volume swell (louder/softer)
 x   - on rhythm slash represents muted slash
 o   - on rhythm slash represents single note slash

Misc Legend
-----------
 |  - bar
||  - double bar
||o - repeat start
o|| - repeat end
*|  - double bar (ending)
 :  - bar (freetime)
 $  - Segno
 &  - Coda
Tempo markers -  = BPM(8/16=s8/s16), where s8 = swing 8ths, s16 = swing 16ths


***************************************************************************************
* Generated using Power Tab Editor by Brad Larsen - http://powertab.guitarnetwork.org *
***************************************************************************************
  development and support by
dmitry ivanov