rock
 
|tablatures   |lyrics   |discussion forums   |more tabs @ XGuitar.com

Iced Earth tabs

Heaven Denies bass tab

Demons&Wizards
Heaven Denies
from Demons&Wizards by  Kursh, Schaffer
Transcripted by Stefano Lopez (bloch@ciaoweb.it)

FIND EVERY ICED EARTH SONG AND
THE MOST UPDATED VERSION OF THIS SONG AT:

                          The Frozen Palace
                  http://abysslord.com/icedearth/
  
PLEASE DO NOT COPY THIS TAB TO ANOTHER SITE 
WITHOUT AUTHORS' PERMISSION.  THANK YOU.

Tune 1/2 step down

Intro x4
G|----------------------------------------------------------------------||
D|------------------------------5555------------------5-555--7-777------||
A|-7-777-7-777-8888-7-777-7-777------7-777-7-777-8888--------------8888-||
E|----------------------------------------------------------------------||

Verse 1
G|----------------------------------------------------------|X2
D|----------------------------------------------------------|
A|----------------------------------------------------------|
E|-7-000-7-000-7-8-7-000-7-000-7-8-7-000-7-000-7-8--7--8--3-|
 |
G|------------------------------------------------------|--------------------|
D|------------------------------------------------------|--------------------|
A|-5-(5)/-8--8/10\-8--7-----7-----------7-----7---------|-5-(5)/-8--8/10\-8--|
E|----------------------000---0-0--000----0-0---0-0-000-|--------------------|
 |
G|----------------------------------------------------------||X2
D|----------------------------------------------------------||
A|----------------------------------------------------------||
E|-7-000-7-000-7-8-7-000-7-000-7-8-7-000-7-000-7-8--7--8--3-||
                        
Chorus x4
G|--------------------------------------------------------------------------|
D|--------------------------------------------------------------------------|
A|--------------------------------------------------------------------------|
E|-555555555555555555-111111111111111111-3333333333333333333333333333333333-|
 |
G|--------------------||
D|--------------------||
A|--------------------||
E|-111111111111111111-||

Riff 1 x2
G|----------------------------------------------------------------------||
D|------------------------------5555------------------5-555--7-777------||
A|-7-777-7-777-8888-7-777-7-777------7-777-7-777-8888--------------8888-||
E|----------------------------------------------------------------------||

Verse 2
G|----------------------------------------------------------|X2
D|----------------------------------------------------------|
A|----------------------------------------------------------|
E|-7-000-7-000-7-8-7-000-7-000-7-8-7-000-7-000-7-8--7--8--3-|
 |
G|------------------------------------------------------|--------------------|
D|------------------------------------------------------|--------------------|
A|-5-(5)/-8--8/10\-8--7-----7-----------7-----7---------|-5-(5)/-8--8/10\-8--|
E|----------------------000---0-0--000----0-0---0-0-000-|--------------------|
 |
G|----------------------------------------------------------||X2
D|----------------------------------------------------------||
A|----------------------------------------------------------||
E|-7-000-7-000-7-8-7-000-7-000-7-8-7-000-7-000-7-8--7--8--3-||


Chorus x4
G|--------------------------------------------------------------------------|
D|--------------------------------------------------------------------------|
A|--------------------------------------------------------------------------|
E|-555555555555555555-111111111111111111-3333333333333333333333333333333333-|
 |                    |play at the end of chorus
G|--------------------|------||
D|--------------------|------||
A|--------------------|------||
E|-111111111111111111-|--5-r-||

Outro                          x2|
G|-------------------------------|-----------------------------||
D|------2------3------3------2---|-------0---------------------||til fade out
A|----0------0------0------0-----|-----2----2-------0--2--3--2-||
E|--0------0------0------0-------|---3---------3--1------------||
  development and support by
dmitry ivanov