rock
 
|tablatures   |lyrics   |discussion forums   |more tabs @ XGuitar.com

Iced Earth tabs

God of Thunder guitar tab

Iced Earth – God Of Thunder (Words & Music by Kiss)
                     From the Album 'Tribute To The Gods'
              Copyright 2002, Century Media
                     Version 1.0 – November 2002

Transcribed by: Vortigern

For Questions, Comments, Newest Version, or Corrections contact
Vortigern: at guy@freemail.hammerfall.net
http://www.everglow.be

Check Out Death8699.com, With More Transcriptions On It:
 http://www.death8699.com

.  - palm mute                  ph    - pinched harmonic
/  - slide up to                ah    - artificial harmonic
\  - slide down to              th    - tap harmonic
~  - vibrato                    hr    - natural harmonic
h  - hammer on                  b     - bend
p  - pull off                      Suffixes for bend
t  - tap with finger                    f - full bend    h - half bend
"  - tremolo picking                    r - release      t - tap bend
X  - percussion mute                    p - pick when bent
>  - accented note                 Prefixes
() - ghost note, sustained note         p - pre-bend     w - use bar
*  - see comment                        d - don't pick start of bend

Tune Gtr to Eb
(I tabbed song in D, but Eb is the standard Iced Earth-tuning)

God Of Thunder

Sorry, no solo's!

Riff A, both guitars
|--------------------------------------------------------------------|
|--------------------------------------------------------------------|
|------------------------7hb--------------7---5-7-7h8p7—5h7----------|
|----9---7/9-----9---7-9-5hb------9---7/9-5-7------------------------|
|----7---5/7-----7---5-7----------7---5/7----------------------------|
|-00---0------00---0-----------00---0--------------------------------|
  ..   .      ..   .

Riff B, both guitars
|---------------|-first---------|-second-----------------------------|
|---------------|---------------|------------------------------------|
|---------------|---------------|------------------------------------|
|----------7--7-|-5-7-7h8p7-5h7-|------------------------------------|
|-2---7/9--5--5-|---------------|-7777-5h7---------------------------|
|-0-0-5/7-------|---------------|------------------------------------|
    .                             .... . .

Riff C, both guitars
|------------------|-first-------------|-second----------------------|
|------------------|-------------------|-----------------------------|
|------------------|-------------------|-----------------------------|
|-5-5-------7-7--9-|-5-5--9-9--22222-4-|-5-4-5-4--5-9-7--------------|
|-3-3--5-5--5-5--7-|-3-3--7-7--00000-2-|-3-2-3-2--3-7-5--------------|
|------3-3---------|-------------------|-----------------------------|
                               .....

Riff D
This is the riff A with lots of bending to get that high pitched sound.

Riff E
|--------------------------------------------------------------------|
|--------------------------------------------------------------------|
|--------------------------------------------------------------------|
|--------------------------------------------------------------------|
|-2--2---------------------------------------------------------------|
|-0--0---------------------------------------------------------------|
  .  .

Check Out Death8699.com, With More Transcriptions On It:
 http://www.death8699.com
  development and support by
dmitry ivanov