rock
 
|tablatures   |lyrics   |discussion forums   |more tabs @ XGuitar.com

Iced Earth tabs

Ghost of Freedom bass tab

Iced Earth
Ghost Of Freedom
from Horror Show by Schaffer, Barlow
Transcripted by Stefano Lopez (toscanino@inwind.it)

FIND EVERY ICED EARTH SONG AND
THE MOST UPDATED VERSION OF THIS SONG AT:

                          The Frozen Palace
                  http://abysslord.com/icedearth/

PLEASE DO NOT COPY THIS TAB TO ANOTHER SITE 
WITHOUT AUTHORS' PERMISSION.  THANK YOU.

Tune  step down

Intro guitar arp & verse 1

Chorus x4
G|--------------------------------------------------------||
D|--------------------------------------------------------||
A|-0-r--0--0----3-r--3--3-3---------7------------7-5----5-||
E|--------------------------0-r--0-------0-r--0-------7---||

Verse 2
G|------------------------------------------------------|
D|------------------------------------------------------|
A|-0-r----------3-r----------------------3-r--3-5-3-2-3-|
E|--------------------------3-r-------------------------|
 |
G|------------------------------------------------------||X3
D|------------------------------------------------------||
A|-0-r----------3-r-----3-3--------------3-r--3-5-3-2-3-||
E|--------------------------3-r-------------------------||

Chorus x4
G|--------------------------------------------------------||
D|--------------------------------------------------------||
A|-0-r--0--0----3-r--3--3-3---------7------------7-5----5-||
E|--------------------------0-r--0-------0-r--0-------7---||

Solo x4                                                 
G|----------------------------------------------------------||
D|----------------------------------------------------------||
A|-------------3--3-3--3-3-3/5-5--------------3-2---2-------||
E|-5--5-5--5-5-------------------0--0-0--0-0------5----5-3~-||

Verse 3
G|------------------------------------------------------|
D|------------------------------------------------------|
A|-0-r----------3-r----------------------3-r--3-5-3-2-3-|
E|--------------------------3-r-------------------------|
 |
G|------------------------------------------------------||X3
D|------------------------------------------------------||
A|-0-r----------3-r-----3-3--------------3-r--3-5-3-2-3-||
E|--------------------------3-r-------------------------||

Chorus x4
G|--------------------------------------------------------||
D|--------------------------------------------------------||
A|-0-r--0--0----3-r--3--3-3---------7------------7-5----5-||
E|--------------------------0-r--0-------0-r--0-------7---||

Ending Solo x4 (then fade out)                                                 
G|----------------------------------------------------------||
D|----------------------------------------------------------||
A|-------------3--3-3--3-3-3/5-5--------------3-2---2-------||
E|-5--5-5--5-5-------------------0--0-0--0-0------5----5-3~-||


  development and support by
dmitry ivanov