rock
 
|tablatures   |lyrics   |discussion forums   |more tabs @ XGuitar.com

Iced Earth tabs

Frankenstein bass tab

Iced Earth
Frankenstein
from Horror Show by Schaffer
Transcripted by Stefano Lopez (toscanino@inwind.it)

FIND EVERY ICED EARTH SONG AND
THE MOST UPDATED VERSION OF THIS SONG AT:

                          The Frozen Palace
                  http://abysslord.com/icedearth/

PLEASE DO NOT COPY THIS TAB TO ANOTHER SITE 
WITHOUT AUTHORS' PERMISSION.  THANK YOU.

Tune  step down

Intro Guitar Riff 1

Intro (riff 1) x2
G|------------------------|------------------------||
D|------------------------|------------------------||
A|------------------------|------------------------||
E|-5--5-3-5-3---5-5-3-5-6-|-5--5-3-5-3---6--6--6-6-||
         
Verse 1 x2
G|------------------------------|------------------------------|
D|------------------------------|------------------------------|
A|----0-000-0-0-000-0-0---------|----0-000-0-0-000-0-0---------|
E|-5--------------------6--5--3-|-5--------------------6--5--3-|
 |
G|---------------------------|---------------------||
D|---------------------------|---------------------||
A|----0-000-0-0-000-0-0------|---------1--1--3-3-1-||
E|-5--------------------6--2-|-3--3-3--------------||

Riff 1 x2
G|------------------------|------------------------||
D|------------------------|------------------------||
A|------------------------|------------------------||
E|-5--5-3-5-3---5-5-3-5-6-|-5--5-3-5-3---6--6--6-6-||

Verse 2 x2
G|------------------------------|------------------------------|
D|------------------------------|------------------------------|
A|----0-000-0-0-000-0-0---------|----0-000-0-0-000-0-0---------|
E|-5--------------------6--5--3-|-5--------------------6--5--3-|
 |
G|---------------------------|---------------------||
D|---------------------------|---------------------||
A|----0-000-0-0-000-0-0------|---------1--1--3-3-1-||
E|-5--------------------6--2-|-3--3-3--------------||

Chorus 
G|------------------------|------------------------|
D|------------------------|------------------------|
A|------------------------|------------------------|
E|-5--5-3-5-3---5-5-3-5-6-|-5--5-3-5-3---6--6--6-6-|
 |
G|------------------------|------------------------||
D|------------------------|--------------8--7--5h7-||
A|------------------------|------------------------||
E|-5--5-3-5-3---5-5-3-5-6-|-5--5-3-5-3-------------||

Solo x2
G|------------------------------------------------------||
D|------------------------------------------------------||
A|------------------------------------------------------||
E|-5--5-3-5-3----5-5-3-5-6-5-3---5--5-3-5-3---6--6--6-6-||





Riff 2 x2
G|-------------------------------------------------------------------------|
D|-------------------------------------------------------------------------|
A|-------------------------3--3-3-3--3-3-3--3-3-3---2--2-2-2--2-2-2--2-2-2-|
E|-5--5-5-5--5-5-5--5-5-5--------------------------------------------------|
 |
G|------------------------|------------------------------------------------|
D|------------------------|------------------------------------------------|
A|-3--3-3-3--3-3-3--3-3-3-|-------------------------3--3-3-3--3-3-3--3-3-3-|
E|------------------------|-5--5-5-5--5-5-5--5-5-5-------------------------|
 |
G|-------------------------------------------------------------||
D|-------------------------------------------------------------||
A|-5--5-5-5--5-5-5--5-5-5--3--3-3-3--3-3-2--2-2-2--2-2-2-------||
E|--------------------------------------------------------5-3--||

Chorus 
G|------------------------|------------------------|
D|------------------------|------------------------|
A|------------------------|------------------------|
E|-5--5-3-5-3---5-5-3-5-6-|-5--5-3-5-3---6--6--6-6-|
 |
G|------------------------|------------------------||
D|------------------------|--------------8--7--5h7-||
A|------------------------|------------------------||
E|-5--5-3-5-3---5-5-3-5-6-|-5--5-3-5-3-------------||

Verse 3 x2
G|------------------------------|------------------------------|
D|------------------------------|------------------------------|
A|----0-000-0-0-000-0-0---------|----0-000-0-0-000-0-0---------|
E|-5--------------------6--5--3-|-5--------------------6--5--3-|
 |
G|---------------------------|---------------------||
D|---------------------------|---------------------||
A|----0-000-0-0-000-0-0------|---------1--1--3-3-1-||
E|-5--------------------6--2-|-3--3-3--------------||

Chorus x2
G|------------------------|------------------------|
D|------------------------|------------------------|
A|------------------------|------------------------|
E|-5--5-3-5-3---5-5-3-5-6-|-5--5-3-5-3---6--6--6-6-|
 |
G|------------------------|------------------------||
D|------------------------|--------------8--7--5h7-||
A|------------------------|------------------------||
E|-5--5-3-5-3---5-5-3-5-6-|-5--5-3-5-3-------------||

Ending 
G|----------------------------------||
D|----------------------------------||
A|----------------------------------||
E|-5--5-3-5-3-5--6--6--6-6----3--5\-||
 


  development and support by
dmitry ivanov