rock
 
|tablatures   |lyrics   |discussion forums   |more tabs @ XGuitar.com

Iced Earth tabs

Electric Funeral guitar tab

Iced Earth:  Electric Funeral (Black Sabbath)

transcribed by: Russ Elton (webmaster@abysslord.com)

FIND EVERY ICED EARTH SONG AND
THE MOST UPDATED VERSION OF THIS SONG AT:

                          The Frozen Palace
                  http://abysslord.com/icedearth/

Date last modified:  01/04/02
  
PLEASE DO NOT COPY THIS TAB TO ANOTHER SITE 
WITHOUT AUTHORS' PERMISSION.  THANK YOU.

Tuning: D (drop all strings a whole step)


Riff 1
d|------------------------------|
A|------------------------------|
F|------------------------------|
C|------------------------------|
G|--------2-3-2~~~--------------|
D|--0--0------------0--2-3-2~~~-|


Riff 2
d|------------------------------------|
A|------------------------------------|
F|------------------------------------|
C|-------------------------4--3--2----|
G|----2--1--0-----2-2-2-2--2--1--0--5-|
D|-0-----------3--0-0-0-0-----------3-|
                  * * * *
  "Flashes in the sky..."



Play Riff 1   "...decay..."
Play Riff 2   "Dying world..."
Play Riff 1   "...pyre..."

Last time
d|----------------------------------|
A|----------------------------------|
F|----------------------------------|
C|----------------------------------|
G|--------2-3-2~~~---------------2--|
D|--0--0------------0--2-3-2~~~--0--|


Riff 3
d|---------------|
A|---------------|
F|---------------|
C|--9----8----7--|
G|--7----6----5--|
D|--7----6----5--|


Riff 4
d|----------------------|
A|----------------------|
F|------------12-12-12\-|
C|--9--7--9---12-12-12\-|
G|--7--5--7-------------|
D|----------------------|
      

Riff 5                                  x2
d|---------------------------------------|
A|---------------------------------------|
F|-----12-14-12-14b15-----12-14-15-14-12-|
C|--14-----------------14----------------|
G|---------------------------------------|
D|---------------------------------------|
  "Buildings crashing down..."

Play Riff 4   
Play Riff 5   "Earth lies in deathbed..."


Riff 6 (Guitar 2 plays top notes)
                   x4                   x2
d|-12--12--12--12---|--10-10-10-12/15-12-|--10-10-10-12/15~-|
A|-15^-15^-15^-15^--|--------------------|------------------|
F|------------------|--------------------|------------------|
C|--9-8-7-----------|---------------5----|---------------5~-|
G|--7-6-5---9-8-7---|---5--5--5--7-----7-|---5--5--5--7-----|
D|----------7-6-5---|--------------------|------------------|
            * * * 
  "Electric funeral..."


Play Riff 1  


Riff 2a                              x2
d|------------------------------------|
A|------------------------------------|
F|------------------------------------|
C|----4--3--2--------------4--3--2----|
G|-2--2--1--0--5--2-2-2-2--2--1--0--5-|
D|-0-----------3--0-0-0-0-----------3-|
                  * * * *
   "And so in the sky..."
                               x3
d|------------------------------|
A|------------------------------|
F|------------------------------|
C|---------4-------3------------|
G|-2-------2-------1------------|
D|-0-0-0-0---0-0-0---0-0-0-5-3~-|
     * * *   * * *   * * * a a
   "Heaven's golden chorus sings..."
d|------------------------------|
A|------------------------------|
F|------------------------------|
C|------------------------------|
G|---------2-2-2-2-1-1-1-1------|
D|-0-0-0-0-----------------5-3~-|
   * * * * * * * * * * * * a a
   "...burning hell!"


Play Riff 1
Play Riff 3

Song fades out


Notation:

10^        = bend a quarter step.
10b11      = bend a half step.
10b12      = bend a full step.
10b12r10   = bend and release.
[10]12     = pre-bend.
[10]12r10  = pre-bend and release.
{14}       = pick the 14th fret while holding the most 
             previous bend.
<17>       = touch the string above the 17th fret while 
             previous note(s) is(are) still ringing.

10b13*     = tremolo bar bend, from the 10th fret to the 13th fret.
7d4*       = tremolo bar dive, from the 7th fret to the 4th fret. 
12~*       = tremolo bar vibrato.

x   =  mute with fret-hand
*   =  palm mute
X\\ =  pick slide
h   =  hammer-on
p   =  pull-off
~   =  vibrato
t   =  finger tap
/   =  slide up
\   =  slide down
h.  =  natural harmonics
a   =  artificial harmonics
(9) =  ghost note
tm  =  trem picking
tr  =  trill
  development and support by
dmitry ivanov