rock
 
|tablatures   |lyrics   |discussion forums   |more tabs @ XGuitar.com

Iced Earth tabs

Electric Funeral bass tab

ICED EARTH
Electric Funeral
from The Melancholy E.P. by Paul Rodgers
- Black Sabbath cover -
Transcripted by Stefano Lopez (toscanino@inwind.it)

FIND EVERY ICED EARTH SONG AND
THE MOST UPDATED VERSION OF THIS SONG AT:

                          The Frozen Palace
                  http://abysslord.com/icedearth/

PLEASE DO NOT COPY THIS TAB TO ANOTHER SITE 
WITHOUT AUTHORS' PERMISSION.  THANK YOU.

Tune down  step

Intro x4 (Riff 1) 
F|-------4-5-4~~~--------------||
C|-----------------------------||
G|-----------------------------||
D|-0--0------------0--2-3-2~~~-||

Guitar riff 2 & verse 1

Verse 2 x2
F|------------------------------------------------||
C|------------------------------------------------||
G|-----2----1----0----------------2----1----0-----||
D|-0----------------3----0-0-0-0---------------3--||

Riff 1 x4
F|-------4-5-4~~~--------------||
C|-----------------------------||
G|-----------------------------||
D|-0--0------------0--2-3-2~~~-||

Guitar riff 2 & verse 3

Verse 4 x2
F|------------------------------------------------||
C|------------------------------------------------||
G|-----2----1----0----------------2----1----0-----||
D|-0----------------3----0-0-0-0---------------3--||

Riff 1 x4
F|-------4-5-4~~~--------------||
C|-----------------------------||
G|-----------------------------||
D|-0--0------------0--2-3-2~~~-||

Interlude
F|--------------------------------------------------|
C|--------------------------------------------------|
G|------------------7-7-7-7-7-7-7-7-7-7-7-7-7-7-7-7-|
D|-0-r--0-0-0-0-0-0---------------------------------|
 |      (cresc.)
F|-------------------||X4
C|-------------------||
G|-7-r---6-r---5-r---||
D|-------------------||

Guitar riff 3

Riff 3 x2
F|-------------------||
C|-------------------||
G|-7--5--7-----------||
D|----------3-3-3--3-||




Verse 5 x2
F|--------------------------------------------------||
C|--------------------------------------------------||
G|--------------------------------------------------||
D|-0-0-0-3-3-3-5-5-5-3-5-6--0-0-0-3-3-3-5-5-5-6-5-3-||

Riff 3 x4
F|-------------------||
C|-------------------||
G|-7--5--7-----------||
D|----------3-3-3--3-||

Verse 6 x2
F|--------------------------------------------------||
C|--------------------------------------------------||
G|--------------------------------------------------||
D|-0-0-0-3-3-3-5-5-5-3-5-6--0-0-0-3-3-3-5-5-5-6-5-3-||

Chorus           X4|                X2|
F|-----------------|------------------|-------------------||
C|-----------------|-------------5----|-------------5~-r--||
G|-7-6-5-----------|-5--5--5--7-----7-|-5--5--5--7--------||
D|---------7-6-5---|------------------|-------------------||	

Riff 1 x4
F|-------4-5-4~~~--------------||
C|-----------------------------||
G|-----------------------------||
D|-0--0------------0--2-3-2~~~-||

Verse 7 x2
F|------------------------------------------------||
C|------------------------------------------------||
G|-----2----1----0----------------2----1----0-----||
D|-0----------------3----0-0-0-0---------------3--||
                          * * * *
                                     
Verse 8                           X3|
F|----------------------------------|---------------------------------||
C|----------------------------------|---------------------------------||
G|-7--------2-------1---------------|---------2-2-2-2-1-1-1-1---------||
D|----0-0-0---0-0-0---0-0-0--5--3~--|-0-0-0-0------------------5--3~--||

Riff 1 x4
F|-------4-5-4~~~--------------||
C|-----------------------------||
G|-----------------------------||
D|-0--0------------0--2-3-2~~~-||

Ending ('til fade out)
F|-------------------||
C|-------------------||
G|-7-r---6-r---5-r---||
D|-------------------||



  development and support by
dmitry ivanov