rock
 
|tablatures   |lyrics   |discussion forums   |more tabs @ XGuitar.com

Iced Earth tabs

Dragon's Child bass tab

Iced Earth
Dragon's Child
from Horror Show by Schaffer, Barlow
Transcripted by Stefano Lopez (toscanino@inwind.it)

FIND EVERY ICED EARTH SONG AND
THE MOST UPDATED VERSION OF THIS SONG AT:

                          The Frozen Palace
                  http://abysslord.com/icedearth/

PLEASE DO NOT COPY THIS TAB TO ANOTHER SITE 
WITHOUT AUTHORS' PERMISSION.  THANK YOU.

Tune  step down

Intro & verse 1
G|------------------------------------|-----------------------------------|X3
D|------------------------------------|-----------------------------------|
A|--------------------3-r-------------|-2-r---------------0----3-----2----|
E|-0-r--------------------------------|-----------------------------------|
 |
G|------------------------------------|---------------------------------------||
D|------------------------------------|---------------------------------------||
A|--------------------3-r-------------|-2-r--------------------------3-2------||
E|-0-r--------------------------------|-------------------3----5---------0--r-||

Riff 1
G|------------------------------------------------------------|-----------|
D|------------------------------------------------------------|-----------|
A|----7--7-7-7-7-7-77--3--3--3-3-3-3-3-33--2--2--2-2-2-2-2-22-|------3--2-|
E|-0----------------------------------------------------------|-5---------|
 |
G|---------------------------------------------------------|------------------||
D|----------------------------------------5h7--------------|------------------||
A|----7--7-7-7-7-7-77--3--3--3-3-3-3-3-33-----2-2-2-2-2-22-|--------------3-2-||
E|-0-------------------------------------------------------|-3-333-3-333------||

Verse 1 x4 
G|-----------------------------|---------------------------------||
D|-----------------------------|---------------------------------||
A|-------------0-2-3-----------|-0-2-5-----------0-2-------------||
E|-0-000-0-000-------000-0-000-|-------000-0-000------3---5---3--||

Riff 1
G|------------------------------------------------------------|-----------|
D|------------------------------------------------------------|-----------|
A|----7--7-7-7-7-7-77--3--3--3-3-3-3-3-33--2--2--2-2-2-2-2-22-|------3--2-|
E|-0----------------------------------------------------------|-5---------|
 |
G|---------------------------------------------------------|------------------||
D|----------------------------------------5h7--------------|------------------||
A|----7--7-7-7-7-7-77--3--3--3-3-3-3-3-33-----2-2-2-2-2-22-|--------------3-2-||
E|-0-------------------------------------------------------|-3-333-3-333------||

Verse 2 x4 
G|-----------------------------|---------------------------------||
D|-----------------------------|---------------------------------||
A|-------------0-2-3-----------|-0-2-5-----------0-2-------------||
E|-0-000-0-000-------000-0-000-|-------000-0-000------3---5---3--||

Chorus x2
G|------------------------------------------------------------|-----------|
D|------------------------------------------------------------|-----------|
A|----7--7-7-7-7-7-77--3--3--3-3-3-3-3-33--2--2--2-2-2-2-2-22-|------3--2-|
E|-0----------------------------------------------------------|-5---------|
 |
G|---------------------------------------------------------|------------------||
D|---------------------------------------------------------|------------------||
A|----7--7-7-7-7-7-77--3--3--3-3-3-3-3-33-5h7-2-2-2-2-2-22-|--------------3-2-||
E|-0-------------------------------------------------------|-3-333-3-333------||


Riff 2 x2
G|-----------------------------------------------------------------||
D|-----------------------------------------------------------------||
A|------7-7-7-7-7-r--3-3--3-3-3-3-3-r--2-2--2-2-2-2-2-r-------3--2-||
E|-0-0----------------------------------------------------5--------||

Solo 
G|-----------------------------|---------------------------------|X2
D|-----------------------------|---------------------------------|
A|-------------0-2-3-----------|-0-2-5-----------0-2-------------|
E|-0-000-0-000-------000-0-000-|-------000-0-000------3---5---3--|
 |
G|-----------------------------------------------------------------||X2
D|-----------------------------------------------------------------||
A|------7-7-7-7-7-r--3-3--3-3-3-3-3-r--2-2--2-2-2-2-2-r-------3--2-||
E|-0-0----------------------------------------------------5--------||

Chorus x2
G|------------------------------------------------------------|-----------|
D|------------------------------------------------------------|-----------|
A|----7--7-7-7-7-7-77--3--3--3-3-3-3-3-33--2--2--2-2-2-2-2-22-|------3--2-|
E|-0----------------------------------------------------------|-5---------|
 |
G|---------------------------------------------------------|------------------||
D|---------------------------------------------------------|------------------||
A|----7--7-7-7-7-7-77--3--3--3-3-3-3-3-33-5h7-2-2-2-2-2-22-|--------------3-2-||
E|-0-------------------------------------------------------|-3-333-3-333------||

Outro
G|------------------------------------------------------------|-----------|
D|------------------------------------------------------------|-----------|
A|----7--7-7-7-7-7-77--3--3--3-3-3-3-3-33--2--2--2-2-2-2-2-22-|------3--2-|
E|-0----------------------------------------------------------|-5---------|
 |
G|---------------------------------------------------------|------------------|
D|---------------------------------------------------------|------------------|
A|----7--7-7-7-7-7-77--3--3--3-3-3-3-3-33-5h7-2-2-2-2-2-22-|--------------3-2-|
E|-0-------------------------------------------------------|-3-333-3-333------|
 |
G|-----------------------------------------------------------------|
D|-----------------------------------------------------------------|
A|------7-7-7-7-7-r--3-3--3-3-3-3-3-r--2-2--2-2-2-2-2-r-------3--2-|
E|-0-0----------------------------------------------------5--------|
 |
G|----------------12--------------------10-------------------7-------------------------||
D|----------/9-12----12-----------/7-10----10-----------/5-7---7-----------------------||
A|------7-7--------------3-3--3-3--------------2-2--2-2----------8-------3----2--------||
E|-0-0--------------------------------------------------------------5--------------0-r-||



  development and support by
dmitry ivanov