rock
 
|tablatures   |lyrics   |discussion forums   |more tabs @ XGuitar.com

Iced Earth tabs

Dracula bass tab

Iced Earth
Dracula
from Horror Show by Schaffer
Transcripted by Stefano Lopez (toscanino@inwind.it)

FIND EVERY ICED EARTH SONG AND
THE MOST UPDATED VERSION OF THIS SONG AT:

                          The Frozen Palace
                  http://abysslord.com/icedearth/

PLEASE DO NOT COPY THIS TAB TO ANOTHER SITE 
WITHOUT AUTHORS' PERMISSION.  THANK YOU.

Tune  step down

Intro: guitar arp and intro-verse 1-2

(fretless bass)
G|------------12------------|-----------15----14--12-\--|
D|-7/12----12------12-15-\--|-7/12---12----12-----------|
A|--------------------------|---------------------------|
E|--------------------------|---------------------------|
 |
G|---------7/9h10p9----|-10-9--7-\---||
D|-7--7h10----------7--|-------------||
A|---------------------|-------------||
E|---------------------|-------------||

Intro-verse 3 (fretless bass)
G|--------------------------------|-------------------------10---9--7-/--|
D|--------------------------------|-----------------------7----7---------|
A|-5-r-------3-/-5-r------/8-7----|---------------10/12------------------|
E|-----------------------------10-|-5-r-------/12------------------------|
 |
G|--------------------------------|--------------------------------------||
D|--------------------------------|--------------------------10--9---7-/-||
A|-5-r-------3-/-5-r-----/12\10\8-|---------------10-10/12---------------||
E|--------------------------------|-5-r-------/12------------------------||

Intro-verse 4             X3|
G|--------------------------|------||
D|--------------------------|------||
A|--------------------------|------||
E|-0-r--------------------1-|--0-r-||

Riff 1
G|---------------------------------------|-----------------------------------------|
D|---------------------------------------|------------------------------------5h77-|
A|-5-5555-5-5555-5-5555-5-5555-5-55-5-55-|-5-5555-5-5555-5-5555-5-5555-3h5-55------|
E|---------------------------------------|-----------------------------------------|
 |
G|-------------------------------------|-------------------------------------||
D|-------------------------------------|-------------------------------------||
A|-------------------------------------|-------------------------------------||
E|-5-5555-5-5555-5-5555-5-5555-5-5-5-3-|-5-5555-5-5555-5-5555-5-5555-5-5-5-5-||

Verse 1 x3
G|---------------------------------------|---------------------------------------|
D|---------------------------------------|---------------------------------------|
A|-5-5555-5-5555-5-5555-5-5555-5-55-5-55-|-5-5555-5-5555-5-5555-5-5555-5-55------|
E|---------------------------------------|----------------------------------3-33-|
 |
G|-------------------------------------|-------------------------------------||
D|-------------------------------------|-------------------------------------||
A|-------------------------------------|-------------------------------------||
E|-5-5555-5-5555-5-5555-5-5555-5-5-5-3-|-5-5555-5-5555-5-5555-5-5555-5-5-5-5-||

Pre-chorus x2
G|---------------------------------|---------------------------------||
D|---------------------------------|---------------------------------||
A|---------------------------3-4-3-|---------------------------3-----||
E|-00000-0-00000-0-00000-0-1-------|-00000-0-00000-0-00000-0-1---4-3-||

Verse 2 x2
G|---------------------------------------|---------------------------------------|
D|---------------------------------------|---------------------------------------|
A|-5-5555-5-5555-5-5555-5-5555-5-55-5-55-|-5-5555-5-5555-5-5555-5-5555-5-55------|
E|---------------------------------------|----------------------------------3-33-|
 |
G|-------------------------------------|-------------------------------------||
D|-------------------------------------|-------------------------------------||
A|-------------------------------------|-------------------------------------||
E|-5-5555-5-5555-5-5555-5-5555-5-5-5-3-|-5-5555-5-5555-5-5555-5-5555-5-5-5-5-||

Pre-chorus x2
G|---------------------------------|---------------------------------||
D|---------------------------------|---------------------------------||
A|---------------------------3-4-3-|---------------------------3-----||
E|-00000-0-00000-0-00000-0-1-------|-00000-0-00000-0-00000-0-1---4-3-||

Chorus x2
G|-----------------|-----------------|-----------------|-----------------|
D|-----------------|-----------------|-----------------|-----------------|
A|-555555555555555-|-555555555555555-|-555555555555555-|-555555555555555-|
E|-----------------|-----------------|-----------------|-----------------|
 |
G|-----------------|-----------------|-----------------|-----------------||
D|-----------------|-----------------|-----------------|-----------------||
A|-10h121212121212-|-10h121212121212-|-10h121212121212-|-10h121212121212-||
E|-----------------|-----------------|-----------------|-----------------||

Post-chorus x4
G|-----------------------------||
D|-----------------------------||
A|-----------------------------||
E|-0--0-0-0-0--0-0-1--3--3-3-1-||
 
Solo                                                    
G|-----------------------------|---------------------------|X2
D|-----------------------------|---------------------7-5---|
A|-3h5-5-5-5-5-5-5-5-5-3h5-3h5-|-3h5-5-5-5-5-5-5-5-5-----8-|
E|-----------------------------|---------------------------|
 |                                                           
G|-----------------------------|--------------------------------|X2
D|-----------------------------|-------------------5-7-7777-5---|
A|-----------------------------|------------------------------8-|
E|-3h5-5-5-5-5-5-5-5-5-3h5-3h5-|-3h5-5-5-5-5-5-5-5--------------|
 |
G|-----------------------------|---------------------------|X2
D|-----------------------------|---------------------7-5---|
A|-3h5-5-5-5-5-5-5-5-5-3h5-3h5-|-3h5-5-5-5-5-5-5-5-5-----8-|
E|-----------------------------|---------------------------|
 |
G|----------------------------------||X4
D|----------------------------------||
A|----------------------------------||
E|-5-55555-55555-55555-5555-5-3-6\5-||

Chorus x4
G|-----------------|-----------------|-----------------|-----------------|
D|-----------------|-----------------|-----------------|-----------------|
A|-555555555555555-|-555555555555555-|-555555555555555-|-555555555555555-|
E|-----------------|-----------------|-----------------|-----------------|
 |


G|-----------------|-----------------|-----------------|-----------------||
D|-----------------|-----------------|-----------------|-----------------||
A|-10h121212121212-|-10h121212121212-|-10h121212121212-|-10h121212121212-||
E|-----------------|-----------------|-----------------|-----------------||

Post-chorus x4
G|-----------------------------||
D|-----------------------------||
A|-----------------------------||
E|-0--0-0-0-0--0-0-1--3--3-3-1-||

Ending                                                         
G|-----------------------------|---------------------------|--------||
D|-----------------------------|---------------------7-5---|--------||
A|-3h5-5-5-5-5-5-5-5-5-3h5-3h5-|-3h5-5-5-5-5-5-5-5-5-----8-|-3-5-/--||
E|-----------------------------|---------------------------|--------||



  development and support by
dmitry ivanov