rock
 
|tablatures   |lyrics   |discussion forums   |more tabs @ XGuitar.com

Iced Earth tabs

Disciples of the Lie guitar tab

Iced Earth:  Disciples of the Lie

transcribed by:  Russ Elton (webmaster@abysslord.com)

FIND EVERY ICED EARTH SONG AND
THE MOST UPDATED VERSION OF THIS SONG AT:

                          The Frozen Palace
                  http://abysslord.com/icedearth/

Date last modified:  April 29, 2003
  
PLEASE DO NOT COPY THIS TAB TO ANOTHER SITE 
WITHOUT AUTHORS' PERMISSION.  THANK YOU.

Tuning: Eb

Riff 1 
Guitar 1
eb|-------------------------------|
Bb|-------------------------------|
Gb|-------------------------------|
Db|-------------------------------|
Ab|-9-----------------------------|
Eb|-7-000-000-000-000-000-000-000-|
      *** *** *** *** *** *** ***
eb|-------------------------------|
Bb|-------------------------------|
Gb|-------------------------------|
Db|-------------------------------|
Ab|-8-----------------------------|
Eb|-6-000-000-000-000-000-000-000-|
      *** *** *** *** *** *** ***
eb|-------------------------------|
Bb|-------------------------------|
Gb|-------------------------------|
Db|-------------------------------|
Ab|-7-----------------------------|
Eb|-5-000-000-000-000-000-000-000-|
      *** *** *** *** *** *** ***
eb|-------------------------------|
Bb|-------------------------------|
Gb|-------------------------------|
Db|-------------------------------|
Ab|-6-----------------------------|
Eb|-4-000-000-000-000-000-000-000-|
      *** *** *** *** *** *** ***

Final time:
eb|---------------------------|
Bb|---------------------------|
Gb|---------------------------|
Db|---------------------------|
Ab|-6-------------------------|
Eb|-4-000-000-000-000-000-000-|
      *** *** *** *** *** ***

Guitar 2
eb|-------------------------------------|
Bb|-10~~------10~~------10~~------9~~---|
Gb|-11~~------10~~-------9~~------8~~---|
Db|-------------------------------------|
Ab|-------------------------------------|
Eb|-------------------------------------|


Riff 2                              x2
eb|----------------------------------|--------|
Bb|----------------------------------|--------|
Gb|----------------------------------|--------|
Db|-7-9-10-9-------------------------|--------|
Ab|-5-7--8-7-------------------------|------2-|
Eb|----------000-000-000-000-000-000-|-//\\-0-|
    * *  *   *** *** *** *** *** *** 


Riff 3
eb|----------------------------------|
Bb|----------------------------------|
Gb|----------------------------------|
Db|----------------------------------|
Ab|-2-2-5--2-2-5---------------------|
Eb|-0-0-3--0-0-3-000-3-2-1-000-3-2-1-|
    * *    * *   *** * *   *** * *


Riff 4
eb|-------------------------------|
Bb|-------------------------------|
Gb|-------------------------------|
Db|-------------------------------|
Ab|-------------------------2-2-5-|
Eb|-000-000-000-000-000-000-0-0-3-|
    *** *** *** *** *** *** * *   
   "You abuse..."
eb|-----------------------------|
Bb|-----------------------------|
Gb|-----------------------------|
Db|-----------------------------|
Ab|-----------------------------|
Eb|-000-000-000-3-2-1-000-3-2-1-|
    *** *** *** * *   *** * *


Play Riff 1   "I've gotta do as you say..."
Play Riff 2   "...disciples of the lie..."
Play Riff 3   
Play Riff 4   "Breeding fear..."
Play Riff 1   "I've gotta do as you say..."
Play Riff 2   "...disciples of the lie..."

Interlude

Riff 5
eb|-----------------------------------------------------|
Bb|-----------------------------------------------------|
Gb|-----------------------------------------------------|
Db|-----------------------------------------------------|
Ab|-9------------8------------7------------6------------|
Eb|-7-77777777..-6-66666666..-5-55555555..-4-44444444..-|
      ********     ********     ********     ********
   "The blackness inside..."

Play Riff 1   "I've gotta do as you say..."
Play Riff 2   "I want to see you die..."

Ending
eb|-----------------|
Bb|-----------------|
Gb|-----------------|
Db|-----------------|
Ab|-2-2-5--2-2-5--2-|
Eb|-0-0-3--0-0-3--0-|
    * *    * *    
   "Disciples of the lie!"


Notation:

10^        = bend a quarter step.
10b11      = bend a half step.
10b12      = bend a full step.
10b12r10   = bend and release.
[10]12     = pre-bend.
[10]12r10  = pre-bend and release.
{14}       = pick the 14th fret while holding the most 
             previous bend.
<17>       = touch the string above the 17th fret while 
             previous note(s) is(are) still ringing.

10b13*     = tremolo bar bend, from the 10th fret to the 13th fret.
7d4*       = tremolo bar dive, from the 7th fret to the 4th fret. 
12~*       = tremolo bar vibrato.

x   =  mute with fret-hand
*   =  palm mute
X\\ =  pick slide
h   =  hammer-on
p   =  pull-off
~   =  vibrato
t   =  finger tap
/   =  slide up
\   =  slide down
h.  =  natural harmonics
a   =  artificial harmonics
(9) =  ghost note
tm  =  trem picking
tr  =  trill
  development and support by
dmitry ivanov