rock
 
|tablatures   |lyrics   |discussion forums   |more tabs @ XGuitar.com

Iced Earth tabs

Disciples of the Lie bass tab

ICED EARTH
Disciples of the Lie
from Something Wicked this Way Comes by Schaffer
Transcripted by Stefano Lopez (bloch@ciaoweb.it)

FIND EVERY ICED EARTH SONG AND
THE MOST UPDATED VERSION OF THIS SONG AT:

                          The Frozen Palace
                  http://abysslord.com/icedearth/

PLEASE DO NOT COPY THIS TAB TO ANOTHER SITE 
WITHOUT AUTHORS' PERMISSION.  THANK YOU.

Tune down  step

Intro x4 
G|------------------------------||
D|------------------------------||
A|------------------------------||
E|--000-000-000-000-000-000-000-||

Riff 1
G|----------------------------------------------------------------------------||
D|----------------------------------------------------------------------------||
A|--5-7-8-7-------------------------5-7-8-7-----------------------------------||
E|----------000-000-000-000-000-000---------000-000-000-000-000-000--0-(0)----||
 |
G|-----------------------------------------||
D|-----------------------------------------||
A|-----------------------------------------||
E|--0-0-3--0-0-3--000--3-2-1--000--3-2-1---||

Verse 1 x4
G|--------------------------------------------------------------||
D|--------------------------------------------------------------||
A|--------------------------------------------------------------||
E|-000-000-000-000-000-000-0-0-3--000-000-000--3-2-1--000-3-2-1-||

Chorus x4
G|------------------------------||
D|------------------------------||
A|------------------------------||
E|--000-000-000-000-000-000-000-||

Riff 1
G|----------------------------------------------------------------------------||
D|----------------------------------------------------------------------------||
A|--5-7-8-7-------------------------5-7-8-7-----------------------------------||
E|----------000-000-000-000-000-000---------000-000-000-000-000-000--0-(0)----||
 |
G|-----------------------------------------||
D|-----------------------------------------||
A|-----------------------------------------||
E|--0-0-3--0-0-3--000--3-2-1--000--3-2-1---||

Verse 2 x4
G|--------------------------------------------------------------||
D|--------------------------------------------------------------||
A|--------------------------------------------------------------||
E|-000-000-000-000-000-000-0-0-3--000-000-000--3-2-1--000-3-2-1-||

Chorus x4
G|------------------------------||
D|------------------------------||
A|------------------------------||
E|--000-000-000-000-000-000-000-||





Riff 1b
G|----------------------------------------------------------------------------||
D|----------------------------------------------------------------------------||
A|--5-7-8-7-------------------------5-7-8-7-----------------------------------||
E|----------000-000-000-000-000-000---------000-000-000-000-000-000--0-(0)----||

Bridge x2 (drums and organo)

Bridge x2
G|----------------------------------------------------------------------------|
D|----------------------------------------------------------------------------|
A|----------------------------------------------------------------------------|
E|--7-77777777777777777-6-666666666666666-5-555555555555555-4-444444444444444-|

Chorus x8
G|------------------------------||
D|------------------------------||
A|------------------------------||
E|--000-000-000-000-000-000-000-||

Outro
G|-----------------------------------------------------------------------------|
D|-----------------------------------------------------------------------------|
A|--5-7-8-7-------------------------5-7-8-7------------------------------------|
E|----------000-000-000-000-000-000---------000-000-000-000-000-000--0-(0)-----|
 |
G|------------------||
D|------------------||End of Outro
A|------------------||
E|--0-0-3--0-0-3--0-||





  development and support by
dmitry ivanov